Tablatura para Guitarra de Pasteles Verdes: Amo y Esclavo
Conexión · Inscripción
Letras y Acordes
Pantalla Completa
Imprimir
Versión Texto
Añadir Favorito
Otras Versiones

Mostrar Diagramas
Desfile Automático
Manipular Acordes
Formato del Texto


Amo y Esclavo(TAB)

Pasteles Verdes

calidad:
pver0013
AUTOR: Pasteles Verdes  corregir
ALBUM: desconocido
Enviado por fabian, basado en Irineo
Hola a todos,  esta es mi primera transcripcion
espero les guste ,es muy facil desacarla  y se
oye muy bien. Si no me cren pues chequenla


e----7v------------------------------------
B-7-----7-8-10v--5-7-8----5-7--------------
G----------------------7-------------------
D------------------------------------------
A------------------------------------------
E------------------------------------------


e--------------6-7-9-7-6---7-6-7-6--------
B--7-8-7-5-7-8-----------7---------8-7----
G-----------------------------------------
D-----------------------------------------
A-----------------------------------------
E-----------------------------------------

Nota. ay una parte que va algo rapido pero
 solo es cosa de que escuchen  La cancion para
 ponerla a tiempo, en las v se alarga un poco y
 va vibrado, la letra ya la mando otra persona y
 tambien el intro, pero este se escuha casi igual
 al de la cancion. Correcciones dudas, comentarios
 a  irineo_valdez@yahoo.com.mx
Este fichero es trabajo propio de su transcriptor y representa su interpretación personal de la canción. El material contenido en esta página es
para exclusivo uso privado, por lo que se prohibe su reproducción o retransmisión, así como su uso para fines comerciales.

© LaCuerda.net · Aviso Legal · Privacidad