Tablatura para Guitarra de los Panchos: Ya es muy tarde
Conexión · Inscripción
Letras y Acordes
Pantalla Completa
Imprimir
Versión Texto
Añadir Favorito
Otras Versiones

Mostrar Diagramas
Desfile Automático
Manipular Acordes
Formato del Texto


Ya es muy tarde(TAB)

los Panchos

calidad:
pnch0592
AUTOR: Chucho Navarro
ALBUM: Epoca de Oro de los Panchos, Vol. 3
Enviado por julio
Requinto guitarra 1:

|-----------------------10----8-8-8----8----7-7-7----7----5-----|
|-10-9-8-------------10----10-------10---10--------5---5--------|
|--------10-9-7-7-7---------------------------------------------|
|---------------------------------------------------------------|
|---------------------------------------------------------------|
|---------------------------------------------------------------|

|-----------10-10-10-10--8--8--8--8--7-7-7-7----5-----5----------|
|-10-9-8------10-10-10-10-10-10-10-10-5-5-5-5---------5----------|
|--------10-9-----------------------------------------5----------|
|----------------------------------------------------------------|
|----------------------------------------------------------------|
|----------------------------------------------------------------|

Requinto guitarra 2:

|---------10-12-13-13-13---13--12-12-12--12--10-10-10---10----------|
|-10-12-13---------------15--15--------13--13---------12---12-13----|
|-------------------------------------------------------------------|
|-------------------------------------------------------------------|
|-------------------------------------------------------------------|
|-------------------------------------------------------------------|

|---------10-12-13-13-13-13-12-12-12-12-10-10-10-10-------17--------|
|-10-12-13-------15-15-15-15-13-13-13-13-12-12-12-12--13--17--------|
|---------------------------------------------------------17--------|
|-------------------------------------------------------------------|
|-------------------------------------------------------------------|
|-------------------------------------------------------------------|

Am Ya es muy tarde para remediar
E7 todo lo que ha pasado. Ya es muy tarde para revivir
Am nuestro viejo querer.
A7 Preferible para ti
Dm que olvides el pasado
Am ya es muy tarde si tratas de volver
E7 Am resígnate a perder. Sol(acorde solo para cambio)
C G C En muchas ocasiones te busqué
Am E7 Am y a tus plantas de rodillas imploré
A7 ya no insistas en reunir
Dm tu vida con la mía.
Am E7 Ya es muy tarde si tratas de volver
Am resígnate a perder.
Este fichero es trabajo propio de su transcriptor y representa su interpretación personal de la canción. El material contenido en esta página es
para exclusivo uso privado, por lo que se prohibe su reproducción o retransmisión, así como su uso para fines comerciales.

© LaCuerda.net · Aviso Legal · Privacidad