Tablatura para Guitarra de los Panchos: Vagabundo
Conexión · Inscripción
Letras y Acordes
Pantalla Completa
Imprimir
Versión Texto
Añadir Favorito
Otras Versiones

Mostrar Diagramas
Desfile Automático
Manipular Acordes
Formato del Texto


Vagabundo(TAB)

los Panchos

calidad:
pnch1332
AUTOR: los Panchos  corregir
ALBUM: desconocido
Enviado por jose
E----------------------------------------------------------
A----------------------------------------------------------
D-------------------------------3-3-------------2-2-------3
G-2-3-------3-3-0-0---------2-2---------3-3-0-0-----3-3-2--
B-----1-3-3---------3-3-1-1---------1-1--------------------
e----------------------------------------------------------


--------------------------------------------------------
----------------------------------------------4-4-------
-------------2-2----------3-3-0-0---------2-2---------3-
-0-2-3-3-0-0-----3-3-2-2----------2-2-0-0---------0-0---
--------------------------------------------------------
--------------------------------------------------------
Este fichero es trabajo propio de su transcriptor y representa su interpretación personal de la canción. El material contenido en esta página es
para exclusivo uso privado, por lo que se prohibe su reproducción o retransmisión, así como su uso para fines comerciales.

© LaCuerda.net · Aviso Legal · Privacidad