Tablatura para Bajo de los Panchos: Perdón
Conexión · Inscripción
Letras y Acordes
Pantalla Completa
Imprimir
Versión Texto
Añadir Favorito
Otras Versiones

Mostrar Diagramas
Desfile Automático
Formato del Texto


Perdón(BAJ)

los Panchos

calidad:
pnch0444
AUTOR: Pedro Flores
ALBUM: 20 Exitos de Oro de los Panchos, Vol. 2
Enviado por Antonio
(BAJO)
Introducción (2 veces)
  E                          Am
e|--------------9--------------------------|
b|---------------9-7---10--9-7---9-9-----7-|
g|-----------7-----------------7-----7-7---|
d|----------------—------------------------|

primera parte

   Am        E          Am
Perdón,      Vida de mi vida
e|----------------------------------------------------|
b|----------------------------------------------------|
g|--7--5-6-5--------7----------------7--------------7-|
d|-------------7---------5------8---------5----8------|

    A
 Perdón,      Vida de mi vida
e|---------------------------------------|
b|---------------------------------------|
g|-------------7---------7-------------5-|
d|--9-----5---------5------------5-------|

                     E                           Am
                  perdón,              cariñito amado
e|---------------------------------------------------------------|
b|----7-------7-----------6---9--------6---9---------------------|
g|-8------5-------5---7------------7--------------------7--------|
d|-----------------------------------------------5---8-----5---8-|

            F     F E            Am
   angel adorado,     dame tu perdón.
e|-----------------------------|
b|-----------------------------|
g|-7---8-----8-7-------7-------|
d|---------8------7----------5-|


estribillo
            E                   Am
            Si tu sabes que te quiero
e|---------------------------------|
b|---------------------------------|
g|-7--5-----------2---------2----0-|
d|-------8--0--4-----0---4---------|

                                      E
  con todo el corazón con todo el corazón
e|------------------------------------|
b|-------2-------------------2--------|
g|-3-----------0-------3--------------|
d|----------------------------------0-|

Am
  Que   tu eres la esperanza de mi única ilusión
e|---------------------------------------------|
b|--------------------------------------2------|
g|--------2-----------2----0--------3--------0-|
d|-0---4-----0----4----------------------------|

                A           A7             Dm
 de mi única y  ven dame la dicha que se alcanza
e|------------------------------------------|
b|------2---------------2-1-0---0---2-------|
g|-3---------0---5------------------------0-|
d|------------------------------------------|

Am                       E                Am
con un poco de amor que es todo lo que ansía
e|-------2----------------2----------------|
b|-3------------0----------------0---------|
g|---------------------------------------0-|
d|-----------------------------------------|

Am
que es todo lo que ansía mi pobre corazón
e|----------------------------------|
b|--0------3------2-----------------|
g|----------------------------------|
d|---------------------0-----4----5-|

picado

primera parte

estribillo
Es versión de “Los Potes” de Santiago de Compostela
Este fichero es trabajo propio de su transcriptor y representa su interpretación personal de la canción. El material contenido en esta página es
para exclusivo uso privado, por lo que se prohibe su reproducción o retransmisión, así como su uso para fines comerciales.

© LaCuerda.net · Aviso Legal · Privacidad