Tablatura para Guitarra de los Panchos: Los Dos
Conexión · Inscripción
Letras y Acordes
Pantalla Completa
Imprimir
Versión Texto
Añadir Favorito
Otras Versiones

Mostrar Diagramas
Desfile Automático
Manipular Acordes
Formato del Texto


Los Dos(TAB)

los Panchos

calidad:
pnch0255
AUTOR: Alfredo Gil, Simón Lan
ALBUM: Asi Cante Con los Panchos, Vol. 1
Enviado por jose
E----------------------------------------------------------
A----------------------------------------------------------
D-------------------------------------7--------------------
G-----------7-----------6-----------7-------------------5--
B---------6---8-----8-5---5-6-8---6-1-0---3-1-0-1---8---5--
e-5-7-8-5-------5-7-------------5-------0---------0---7-5-5


-----------------------------------------------------------
-----------------------------------------------------------
--------------------------------------------------7--------
-------------7----------------6---8---------------7--------
-----------6----8-----8---8-5---5---5-6-7-8-----6---1-0---3
-7-8-5-8-5--------5-7---7-------------------4-5---------0—


-------------
-----3-------
-------2-----
---------0---
-1-0-------1-
-------------
Este fichero es trabajo propio de su transcriptor y representa su interpretación personal de la canción. El material contenido en esta página es
para exclusivo uso privado, por lo que se prohibe su reproducción o retransmisión, así como su uso para fines comerciales.

© LaCuerda.net · Aviso Legal · Privacidad