Letra y Acordes de los Panchos: Los Dos
Conexión · Inscripción
Letras y Acordes
Pantalla Completa
Imprimir
Versión Texto
Añadir Favorito
Otras Versiones

Mostrar Diagramas
Desfile Automático
Manipular Acordes
Formato del Texto


Los Dos

los Panchos

calidad:
pnch0253
AUTOR: Alfredo Gil, Simón Lan
ALBUM: Asi Cante Con los Panchos, Vol. 1
Enviado por Dario
 
  Este es el intro de de la rola en LA mayor.

 6\------------------------------------------
 5\------------------------------------------
 4\---------------------------------------4--
 3\-------------4-------------3-----------4--
 2\-----------3-------------2----1-2-0---3---
 1\--2-4-5--2------0-2-4--0------------2-----


 6\------------------------------------------
 5\------------------------------------------
 4\------------------------------------------
 3\-2-1-----2-1-2-------------------------4--
 2\-----2-0-------2---------------------3----
 1\-----------------0-4-1--2-4-5--2-5-2------


 6\------------------------------------------
 5\------------------------------------------
 4\-------------------------------------4----
 3\----------------3--------------------4----
 2\--------------2----2-1-2-3-4-------3------
 1\-0-2-4--0-4-0----------------0-1-2--------


 6\------------------------------------------
 5\------------------------------------------
 4\--------------2---------------------------
 3\-2-1-----2-1--2---------------------------
 2\-----2-0------2---------------------------
 1\------------------------------------------

Espero y les sirva de algo. si tienen alguna duda 
envienme un e_mail al vimd@atame.org
Este fichero es trabajo propio de su transcriptor y representa su interpretación personal de la canción. El material contenido en esta página es
para exclusivo uso privado, por lo que se prohibe su reproducción o retransmisión, así como su uso para fines comerciales.

© LaCuerda.net · Aviso Legal · Privacidad