Tablatura para Guitarra de los Panchos: Gema
Conexión · Inscripción
Letras y Acordes
Pantalla Completa
Imprimir
Versión Texto
Añadir Favorito
Otras Versiones

Mostrar Diagramas
Desfile Automático
Manipular Acordes
Formato del Texto


Gema(TAB)

los Panchos

calidad:
pnch0182
AUTOR: Güicho Cisneros
ALBUM: Hall of Fame: Historia Musical
Enviado por Alan
Se toca rápido es decir con plumilla muchas veces o
 con los dedos si tienen la habilidad


    0:27         ...si mis ojos no me …        engañan….
E -14-11- -13-9-  ---------------------------- -----------------9
B --rapido------- --------------9------------- --11-11-9-9--88---
G --------------- ---------------11108-------- -12--12-1010-99-9-
D --------------- 101010-9-10-11------11-10--  --------------
A --------------- ---------------------------- ---------------
E --------------- --------------------------x2 --------------

       … 1 vez la ilusion…          …hiciera valer
E --------------------5-8-5-8-5-8------- -666-5-3-6-x2-
B -------------------5---5---5---------------------------
G -------------------------------------------------------
D -----------------------------------------------------
A -3-5-7-8------------------------------------------------
E -------------------------------------------------------
…mi alma            …eres la gema que… ..de mi vida    …pidiéndote amor
E -1415--17 x2 -17181715 x2 ------13-9-        -17-18171517-x2
B --rapido------RAPIDO-----------rapido         ---rápido----
G -------------------------------------        ----------------
D -------------------------------------        ----------------
A -------------------------------------         ------------
E -------------------------------------         ----------------
…valer                     …bien de mi vida
E -15/18-201817-18-201817-18- -13-9---
B –sigue rápido men XD ------ --------
G --------------------------- ------------------
D --------------------------- ----------------
A --------------------------- ------------
E --------------------------- ------------------


 Listo XD es lo ke alcanso a escuchar de la rolita
Espero les sirva…y si ponen mala calificación entonces…contáctenme
para que vean que esta idéntica la versión
mexicaunotabs@hotmail.com
Chequen mi canal en utube  www.youtube.com/mralanadair
Este fichero es trabajo propio de su transcriptor y representa su interpretación personal de la canción. El material contenido en esta página es
para exclusivo uso privado, por lo que se prohibe su reproducción o retransmisión, así como su uso para fines comerciales.

© LaCuerda.net · Aviso Legal · Privacidad