Acordes de Guitarra » P »Paco Ibañez » La señorita del abanico (Tab)

La señorita del abanico
Paco Ibañez

Letras, Acordes y Tabs para Guitarra, Bajo y Ukulele

  • e |------0-------0---|------0-------0---|
    B |------1-------1---|------1-------1---|
    G |------2-------2---|------2-------2---|
    D |--3-------2-------|--3-------2-------|
    A |------------------|------------------|
    E |------------------|------------------|
    
    
      |------0-------0----|------0-------0----|
      |------1-------1----|------1-------1----|
      |----2---2---2---2--|----2---2-----2----|
      |--3-------2--------|--3-------2--------|
      |-------------------|-------------------|
      |-------------------|-------------------|
    
    
    DO                                FAmaj7            LAm
    La señorita del abanico va por el puente del fresco río
    DO                                FAmaj7            LAm
    La señorita del abanico va por el puente del fresco río
    
  • +
    ¡Colabora con nosotros!
    Envíanos tu versión de esta canción
  • Tutorial
    La señorita del abanico - reprise ( guitar cover tab )
    1:52

Letra de La señorita del abanico
La señorita del abanico va por el puente del fresco río
La señorita del abanico va por el puente del fresco río
Los caballeros con sus levitas miran el puente sin barandillas
La señorita del abanico y los volantes busca marido
La señorita del abanico y los volantes busca marido
Los caballeros están casados con altas rubias de idioma blanco
Los grillos cantan por el oeste la señorita va por lo verde
Los grillos cantan por el oeste la señorita va por lo verde
Los grillos cantan bajo las flores los caballeros van por el norte
La señorita del abanico va por el puente del fresco río
La señorita del abanico va por el puente del fresco río




[La señorita del abanico chords][La señorita del abanico cifra]
© LaCuerda.net · aviso legal · privacidad · es · en · pt · contacto
DINAMICO