Tablatura para Guitarra de Pablo Milanés: el Breve Espacio
Conexión · Inscripción
Letras y Acordes
Pantalla Completa
Imprimir
Versión Texto
Añadir Favorito
Otras Versiones

Mostrar Diagramas
Desfile Automático
Manipular Acordes
Formato del Texto


el Breve Espacio(TAB)

Pablo Milanés

calidad:
pabl0054
AUTOR: Pablo Milanés
ALBUM: Definitive Collection: 60 Years On
Enviado por marco
QUE TAL? LES ENVIÓ LA TRANSCRIPCIÓN DEL CHELLO QUE 
SE ESCUCHA EN LA INTRODUCCIÓN, EN EL INTERMEDIO Y
AL FINAL. DISFRÚTENLA.


E-7--8--10-10--5----------5--7--7---------------------
B------------------7-7h8-----------7---3-3h5---7-7h8--
G-----------------------------------------------------
D-----------------------------------------------------
A-----------------------------------------------------
E-----------------------------------------------------


E------------5s--5--6--7--8--10-10--5----------5-5h7--
B-3--7-7h8------------------------------7-7h8---------
G-----------------------------------------------------
D-----------------------------------------------------
A-----------------------------------------------------
E-----------------------------------------------------

E--7---------------------------------5----------------
B------7---3-3h5---7-7h8---3---7-7h8------------------
G-----------------------------------------------------
D-----------------------------------------------------
A-----------------------------------------------------
E-----------------------------------------------------


AHÍ TIENEN PUES ESCUCHEN LA ROLA Y VAN A VER QUE SUENA
MUY BIEN. SALUDOS A LA PREPA 9 ' PEDRO DE ALBA ', AL 
CHINO, RAMER, FOXY, DIOR, LARA, PATO Y VERO.
Este fichero es trabajo propio de su transcriptor y representa su interpretación personal de la canción. El material contenido en esta página es
para exclusivo uso privado, por lo que se prohibe su reproducción o retransmisión, así como su uso para fines comerciales.

© LaCuerda.net · Aviso Legal · Privacidad