Tablatura para Guitarra de Pablo Alborán: Solamente Tú
Conexión · Inscripción
Letras y Acordes
Pantalla Completa
Imprimir
Versión Texto
Añadir Favorito
Otras Versiones

Mostrar Diagramas
Desfile Automático
Manipular Acordes
Formato del Texto


Solamente Tú(TAB)

Pablo Alborán

calidad:
plbr0014
AUTOR: Pablo Alboran
ALBUM: Solamente Tu (2010)
Enviado por Kevin
NOTA: Esos “slides” (-s-) pueden algunas veces omitirlos o cambiarlos
por “hammers” para que se les haga más cómodo.
(Aunque así creo que suena mejor…)
-Omito las cuerdas 'e' y 'E' porque no se usan...

ESTROFA I:
   Regálame tu risa,   enseñame a soñar [aar…aar…]
B|---5-s-7-5-5-------|---------------------------------|
G|-6-----------7-6---|---------------------------------|
D|-----------------7-|---7-7-7-9-9-(s-11-s-9-----------|
A|-----------------7-|-7---------------------s-11-s-7)-|

   Con sólo una cariiiii…cia,         me pierdo en este mar.
B|---5-s-7-5-5----------------------|-------------|
G|-6-----------7-s-9-s-11-s-9-s-7---|-------------|
D|--------------------------------7-|---7---7-9-6-|
A|--------------------------------5-|-7---9-------|

   Regá…aa..aa…aalame tu estrella,
B|-----------------------------------------------|
G|-----------------------------------------------|
D|--------------------------------------------12-|
A|-7-s-9-s-7-s-11-s-7-s-12-7-s-14-14-14-12-12-12-|

   La que ilumina esta noche,   Llena de paz y de armonía,
B|----------------------------|------------------------|
G|-------------------------9--|----9-9-9----9-------11-|
D|----12-12-12-12-11--9-11-11-|-11-------12---11-12----|
A|-12-------------------------|------------------------|

Y te entregaré mi vida
B|---------------------------|
G|----11-11-11-11-7-s-9------|
D|-11-------------------11-9-|
A|---------------------------|


ESTRIBILLO:
   Haces que mi cielo vuelva a tener ese azul,
B|--------------------------------------|
G|--------------------------------------|
D|-11-12-11-9-11-11-11-11-11-12-11-9-11-|
A|--------------------------------------|

   Pintas de colores mis mañanas solo tú
B|----------------------------9---|
G|-------------9-9-9-9-9-9-11---9-|
D|-11-11-11-12--------------------|
A|--------------------------------|

   Navego entre las olas de tu voz…  Y
B|---------------------------------|---|
G|-9-9-------------------7-s-9-s-7-|-9-|
D|-----12-12-12-12-11-12-----------|---|
A|---------------------------------|---|

   tú,y tú,y tú,    y solamente tú-(uuuuuu…)
B|----------------------------------------------------------|
G|------------------------------9---------------------------|
D|-11-12-11-12-11-|-12-11-12-11---11-(7-s-9-s-11-s-12-s-14)-|
A|----------------------------------------------------------|

   Haces que mi alma se despierte con tu luz Tú, y tú, y tú..
B|-----------------------------------|-----------------------|
G|-9-9-9-9-9-------------------------|-----------------------|
D|-----------12-12-11-12-11--11-12-9-|-9-11-9-11-9-(s-6-s-7)-|
A|-----------------------------------------------------------|


ESTROFA II:
Enseña tus heridas y así las curaráaas…
B|---5-------5---|--------------|
G|-----7-7-6-----|--------------|
D|-------------7-|---7-7-7-9-9v-|
A|-7-------------|-7------------|

   Que sepa el mundo enteeeero…    Que tu voz guarda un secretoo…
B|---5-s-7-5-5-------------------|----------------------|
G|-------------7-9-s-7-s-5-s-7---|----------------------|
D|-7---------------------------7-|-7-7-7---7-9----------|
A|-------------------------------|-------9-----7-9-s-11-|


INTERMEDIO:
   No menciones tu nombre que en el firmamento se mueeeren de celos…
B|---------------------------------------------|
G|----------------------------7-7-s-9v-7-6-----|
D|-6-7-7-7-7-7-7-7-7-7-9-7-11--------------9-7-|
A|---------------------------------------------|

 Tus ojos son destellos, tu garganta es un misteeeerio
B|---------------------|-----------------------------|
G|-------------9-------|-----------------------------|
D|-11-12-11-12---11----|-7-7-7-9-9-11-9-11-s-14-11-9-|
A|------------------12-|-----------------------------|

-ESTRIBILLO, INTERMEDIO-

-ESTRIBILLO (con cierta repetición final)-
Este fichero es trabajo propio de su transcriptor y representa su interpretación personal de la canción. El material contenido en esta página es
para exclusivo uso privado, por lo que se prohibe su reproducción o retransmisión, así como su uso para fines comerciales.

© LaCuerda.net · Aviso Legal · Privacidad