Letra y Acordes de La Nueva Luna: Como fui a enamorarme de tí
Conexión · Inscripción
Letras y Acordes
Pantalla Completa
Imprimir
Versión Texto
Añadir Favorito
Otras Versiones

Mostrar Diagramas
Desfile Automático
Manipular Acordes
Formato del Texto


Como fui a enamorarme de tí

La Nueva Luna

calidad:
nlun0561
AUTOR: La Nueva Luna  corregir
ALBUM: Como la gente (2002)
Enviado por Dario
Intro:

e---------------10-9-------------------------------9-7----------------------------------------/
B----10-12--12-------12-10-11-12-10--11-12-10--10------10-8-9-10-8-9-10-8--8-12-10-8--7-8-10--/
G-12------------------------------------------------------------------------------------------/
D---------------------------------------------------------------------------------------------/
A---------------------------------------------------------------------------------------------/
E---------------------------------------------------------------------------------------------/


e---------------10-9-------------------------------9-7----------------------------------------/
B----10-12--12-------12-10-11-12-10--11-12-10--10------10-8-9-10-8-9-10-8--8-12-10-8--7-8-10--/
G-12------------------------------------------------------------------------------------------/
D---------------------------------------------------------------------------------------------/
A---------------------------------------------------------------------------------------------/
E---------------------------------------------------------------------------------------------/


e-----------------/
B-----------------/
G--11-9-7-------9-/
D---------11-12---/
A-----------------/
E-----------------/


LA RE como fui a enamorarme de ti
LA si yo sabia que no era bueno
SOL cuando en tus ojos me vi
LA supe que ya no era yo
RE LA de mi alma dueño. como fui a enamorarme de ti si envejecido estoy de penas como fue que te encontré justo cuando me libre de mil cadenas. ESTRIBILLO
LA RE como fui a enamorarme de ti
LA si yo sabia que no era bueno
SIm SOL como fui a caer en este amor
RE que mata que encierra entre la angustia que mata, que quema que en mi sangre
LA envenena que arranca mi vida cual pétalo
RE una flor. como fui a enamorarme de ti si están tus brazos tan vacíos como fui aceptar mi esta pasión que mata, que encierra en la esperanza que parte, que muerde en el fondo de mi alma que grita que encuentra solo vacío y dolor juega con las siguientes notas: Re-La-Sol-La-Re-La ESTRIBILLO ESTA TRANSCRIPCION SE LA QUIERO DEDICAR A MI VIEJO QUE LE ENCANTA
LA NUEVA LUNA!!!!!!!!!!!!!!!!!!!!!!!!
Este fichero es trabajo propio de su transcriptor y representa su interpretación personal de la canción. El material contenido en esta página es
para exclusivo uso privado, por lo que se prohibe su reproducción o retransmisión, así como su uso para fines comerciales.

© LaCuerda.net · Aviso Legal · Privacidad