Tablatura para Guitarra de La Nueva Luna: Como fui a enamorarme de tí
Conexión · Inscripción
Letras y Acordes
Pantalla Completa
Imprimir
Versión Texto
Añadir Favorito
Otras Versiones

Mostrar Diagramas
Desfile Automático
Manipular Acordes
Formato del Texto


Como fui a enamorarme de tí(TAB)

La Nueva Luna

calidad:
nlun0562
AUTOR: La Nueva Luna  corregir
ALBUM: Como la gente (2002)
Enviado por Rodrigo
Aca les paso el segundo solo de la cancion que empieza en 2:21


e|--------------------------|------------|-------------------
b|--14-15-17-15-14-15-17/19-|--17/19-15--|-19-19-19-17-15-17-
g|--------------------------|------------|-------------------
D|--------------------------|------------|-------------------
A|--------------------------|------------|-------------------
E|--------------------------|------------|-------------------


e|------------|-------------------|-------------|
b|--14/15-14--|-17-17-17-15-14-15-|-14-15-17-14-|
g|------------|-------------------|-------------|
D|------------|-------------------|-------------|
A|------------|-------------------|-------------|
E|------------|-------------------|-------------|

e|-----------------------|---------|--------------------|
b|-------10--------------|---------|--------------------|
g|--9-11----11-9----9----|---------|--------------------|
D|---------------12---12-|-12-11-9-|--7-7-7/11-------9--|
A|-----------------------|---------|-----------11-11----|
E|-----------------------|---------|--------------------|

Rodrigo
Mayo 4, 2011.
Este fichero es trabajo propio de su transcriptor y representa su interpretación personal de la canción. El material contenido en esta página es
para exclusivo uso privado, por lo que se prohibe su reproducción o retransmisión, así como su uso para fines comerciales.

© LaCuerda.net · Aviso Legal · Privacidad