Acordes de Guitarra » N »Nicole » Groove is in the heart (Tab)

Groove is in the heart
Nicole

Letras, Acordes y Tabs para Guitarra, Bajo y Ukulele

  • intro.....
    |----------------------------------------|
    |----------------------------------------|
    |------------------2----4--2------------|
    |-4-2-0-4-2-0-2---4-------4---2-2--4|
    
    
    versos/ coros
    |----------------------------------------|
    |----------------------------------------|
    |------------------2----4--2------------|
    |-4-2-0-4-2-0-0---4-------4---2-2--4|
    
    asi es toda la cancion disfrutenla por que es pulenta...aaaa 
    y oye sakn el teklao po'
    ----------
    kualkier korreccion mandela a mi mail...po'
     viva chile mierda...y los dekdencia
    
    ser joven y no ser revolucionario es una contradiccion®
  • +
    ¡Colabora con nosotros!
    Envíanos tu versión de esta canción






[Groove is in the heart chords][Groove is in the heart cifra]
© LaCuerda.net · aviso legal · privacidad · es · en · pt · contacto
DINAMICO