Acordes de Guitarra » N »New Wine » Yeshua Hamashiach (Tab)

Yeshua Hamashiach
New Wine

Letras, Acordes y Tabs para Guitarra, Bajo y Ukulele

  •    F            C             G         Am
    Me gozaré y me alegraré en el Dios de Israel
    
    F                C                G      Am - G - Am - G
    Havenu Shalom Havenu Shalom Havenu Shalom Alecheim
    
       F             C            G         Am
    Yeshua! Hey! Yeshua! Hey! Yeshua Ha-Mashicach
    
    
     F            C             G         Am
    Me gozaré y me alegraré en el Dios de Israel
    
    F                C                G      Am - G - Am - G
    Havenu Shalom Havenu Shalom Havenu Shalom Alecheim
    
       F             C            G         Am
    Yeshua! Hey! Yeshua! Hey! Yeshua Ha-Mashicach
    
    
    
  • e----------------7------------------------------------------
    b-----10-10-10-----10-8-------------------------------------
    g--7--------------------9-9---9-7-7-7---5-7-9---------------
    d-----------------------------------------------------------
    a-----------------------------------------------------------
    E-----------------------------------------------------------
    
    e----------------7------------------------------------------
    b-----10-10-10-----10-8-------------------------------------
    g--7--------------------9-9---9-7-7-7-----------------------
    d---------------------------------------10-9-7--------------
    a-----------------------------------------------------------
    E-----------------------------------------------------------
    
          F            C             G         Am
    // Me gozaré y me alegraré en el Dios de Israel//
    
         F                C                G      Am - G - Am - G
    // Havenu Shalom Havenu Shalom Havenu Shalom Alecheim//
    
    
  • +
    ¡Colabora con nosotros!
    Envíanos tu versión de esta canción

Letra de Yeshua Hamashiach
Me gozaré y me alegraré en el Dios de Israel
Havenu Shalom Havenu Shalom Havenu Shalom Alecheim
Yeshua! Hey! Yeshua! Hey! Yeshua Ha-Mashicach
Me gozaré y me alegraré en el Dios de Israel
Havenu Shalom Havenu Shalom Havenu Shalom Alecheim
Yeshua! Hey! Yeshua! Hey! Yeshua Ha-Mashicach
Se repite varias veces la alabanza y lleva melodia.




[Yeshua Hamashiach chords][Yeshua Hamashiach cifra]
© LaCuerda.net · aviso legal · privacidad · es · en · pt · contacto