Acordes de Guitarra » N »Nestor Garnica » Tal vez sea así (Tab)

Tal vez sea así
Nestor Garnica

Letras, Acordes y Tabs para Guitarra, Bajo y Ukulele

  • E)-15---------------|
    B)------------------|
    G)------------------|
    Guitarra C9
    E)-0------0---------|
    B)----3-------3-----|
    G)--0---0---0---0---|
    D)------------------|
    A)-3------3---------|
    E)------------------|
    
    E)-15---------------|
    B)------------------|
    G)------------------|
            C9/B
    E)-0------0--------|
    B)----3-------3----|
    G)--0---0---0---0--|
    D)-----------------|
    A)-2------2--------|
    
  • E)-15---------------|
    B)------------------|
    G)------------------|
    Guitarra C9
    E)-0------0---------|
    B)----3-------3-----|
    G)--0---0---0---0---|
    D)------------------|
    A)-3------3---------|
    E)------------------|
    
    E)-15---------------|
    B)------------------|
    G)------------------|
            C9/B
    E)-0------0--------|
    B)----3-------3----|
    G)--0---0---0---0--|
    D)-----------------|
    A)-2------2--------|
    
  • +
    ¡Colabora con nosotros!
    Envíanos tu versión de esta canción

Letra de Tal vez sea así
Guitarra C9
C9/B
C9/Bb
La guitarra acompaña(ritmo de zamba).
Verso 1
Tal vez asi sea mejor para los dos
no dudes en buscarme cuando mas me necesites
no olvides que llevaste mi alma en este viaje,
no olvides que mi amor se muere por buscarte
a donde estes, con quien estes, por donde estes.
Acompañamiento verso 1
Verso 2
Tal vez asi encuentres de nuevo un amor
Lo mágico, lo bello, el sentido de la vida
Decime vos a donde fueron con el tiempo,
Decime vos que hago ahora con este infierno
Si ya no estas, sino vendrás, ¿donde estaras?
Estribillo.
Ya me voy cantando quiero guardar tu vos
Que me acompañe siempre donde quiera que yo vaya
No olvides de las cosas simples que vivimos
No olvides que siempre puedes contar conmigo
Aun que no estes, me acercare, a donde estes.
Acordion y engancha con la intro.
Violin en el verso 2 y estribillo.
Aquí hace una nota por cada cambio de acorde.
Estribillo
Repite intro.
Verso 3
Tal vez asi vuelva rendido a tu portal
Andando en esta huella ya cansado del camino
Yo guardo una esperanza como un viejo amigo,
Yo guardo tu mirada que se va conmigo
A donde este, con quien estes, por donde estes.
Verso 4
Tal vez asi vuelva a cantar vieja ilusión
Me voy con mi guitarra por el Rio de la Plata
Buescando el orisonte y poder arrancarte
Ya no puedo olvidarte si estas en mi
Como un puñal, clavada estas, en mi cantar.
Repite estribillo.
Final
Ojala les guste.
Esta bella canción se la dedico a mi amiga
Luisina Broggi, que juntos la tocamos en una audición…
ACORDES




[Tal vez sea así chords][Tal vez sea así cifra]
© LaCuerda.net · aviso legal · privacidad · es · en · pt · contacto
DINAMICO