Tablatura de Música de TV: Kim bum soo - bo go ship da
Acá les dejo la intro, falta aún pulirla


e |--17-17--15-15--13-15--13-13--12-13-10-----------------
B |-------------------------------------------11-10-8-10--
G |----------------------------------------10-------------
D |-------------------------------------------------------
A |-------------------------------------------------------
E |-------------------------------------------------------


e |-------------------------------------------------------
B |-------------------------------------------------------
G |--5-6s7--7-7--7s9-5--5-5--3-2-3-5-7-7s10---------------
D |-------------------------------------------------------
A |-------------------------------------------------------
E |-------------------------------------------------------


después entra la voz y todo ello.
Este fichero es trabajo propio de su transcriptor y representa su interpretación personal de la canción. El material contenido en esta página es
para exclusivo uso privado, por lo que se prohibe su reproducción o retransmisión, así como su uso para fines comerciales.
© LaCuerda.net · aviso legal · privacidad · es · en · pt · contacto