Tablatura para Guitarra de Música de TV: Elfen lied - lilium
Conexión · Inscripción
Letras y Acordes
Pantalla Completa
Imprimir
Versión Texto
Añadir Favorito
Otras Versiones

Mostrar Diagramas
Desfile Automático
Manipular Acordes
Formato del Texto


Elfen lied - lilium(TAB)

Música de TV

calidad:
mdtv2213
AUTOR: Elfen Lied
ALBUM: Elfen Lied (2004)
Enviado por MARCO
1ra parte:

e :--9---------------|--9----------7----2---------|
B :7---9-----10-10---|7---9-----10---10-----3-----|
G :--------6---------|--------6-----------2---2-4-|
D :------6---------7-|------6-----------4-------0-|
A :----8--------9----|----8--------9--------------|
E :------------------|----------------------------|

e :4-------------------|2-------0-2-----4-5-7-5------5-----4-|
B :--5---5-------------|--3-2-3--------------------7-----6---|
G :----7-----6-------3-|-------------------------6-----6-----|
D :--------6---6---4---|-------------------------------------|
A :------4-------------|------2-----2-3-------4--------------|
E :--------------2-----|-------------------------------------|

e :--9---------------|--9----------7----2---------|
B :7---9-----10-10---|7---9-----10---10-----3-----|
G :--------6---------|--------6-----------2---2-4-|
D :------6---------7-|------6-----------4-------0-|
A :----8--------9----|----8--------9--------------|
E :------------------|----------------------------|

e :4-------------------|2-------7--------------------2-|
B :--5---5-------------|--3-2-----10-9-7-----------2---|
G :----7-----6-------3-|------7----------10-8-10-2-----|
D :--------6---6---4---|-------------------------------|
A :------4-------------|-------------------------------|
E :--------------2-----|------7---8----9----9----2-----|

2da parte:

e :6-7-9-10------------------10-----9-----12--------------9-------|
B :-----------7-10-----9--------9-------9------9-10---------10----|
G :---------7------7-------7------9---9------9---------11------11-|
D :4-6-8-9-----------9---9--------------------------11------------|
A :--------------------7------------0------------9----------------|
E :---------------------------------------------------------------|

e :8-----5-----4-----------5-----5-----5-----7-----4-|
B :--4-----4-----4---7---------7---7-----7-------6---|
G :----5-----5-----5---5-----6-------6-----6---6-----|
D :6---------------------6---------------------------|
A :----------------------4-4-------------------------|
E :--------------------------------------------------|

e :--9---------------|--9----------7----2---------|
B :7---9-----10-10---|7---9-----10---10-----3-----|
G :--------6---------|--------6-----------2---2-4-|
D :------6---------7-|------6-----------4-------0-|
A :----8--------9----|----8--------9--------------|
E :------------------|----------------------------|

e :4-------------------|2-------7--------------------2-|------------|
B :--5---5-------------|--3-2-----10-9-7-----------2---|2-3-------2-|
G :----7-----6-------3-|------7----------10-8-10-2-----|2-4-4---2---|
D :--------6---6---4---|-------------------------------|----4-------|
A :------4-------------|-------------------------------|------------|
E :--------------2-----|------7---8----9----9----2-----|------2-----|

3ra parte:

e :--------------------------|----------------|
B :--0-2-----3-2-0-----------|--0-2---4---2---|
G :2---2-2-4-4-----2-------1-|2-4-2-2---4-----|
D :----2-----------------2---|----2-----4---4-|
A :------0-------------2-----|----0-0---2---4-|
E :----------4---2---0-------|2-4-----------2-|

e :5-4-0---2-------------------------|------------------|
B :----2-----0-2---0-3-2-0-2---------|----2-5-4-------2-|
G :--2---2-----2-2---4-------2-1-2---|1-2-2-4-4-4---2---|
D :------------2-------------------4-|----2-------2-----|
A :------------0-0-----------------5-|--0-0---2---------|
E :------------------4---2---2-0-----|------------2-----|

e :----------2-4-5-0---------2-2-----0-5---4-|
B :----------3-------3-2-4---2---5-3-------5-|
G :----------2---------2-4-4-2-------------4-|
D :4-2-------0-0---0---2-----0---0---0-----6-|
A :----4-2-------------0-2-------------------|
E :--------4---------4-----------------2-0---|

e :0------7-9--12-11----9-------0-2-----------|
B :--7-10---10----12-12-10-10-9-----2---------|
G :--7------9-----------11------------4---2---|
D :--7------------------9---------------6-4---|
A :---------9-----11--------------------------|
E :--7----7---------------------------------2-|

4ta parte:

e :6-7-9-10------------------10-----9-----12--------------9-------|
B :-----------7-10-----9--------9-------9------9-10---------10----|
G :---------7------7-------7------9---9------9---------11------11-|
D :4-6-8-9-----------9---9--------------------------11------------|
A :--------------------7------------0------------9----------------|
E :---------------------------------------------------------------|

e :8-----5-----4-----------5-----5-----5-----7-----4-|
B :--4-----4-----4---7---------7---7-----7-------6---|
G :----5-----5-----5---5-----6-------6-----6---6-----|
D :6---------------------6---------------------------|
A :----------------------4-4-------------------------|
E :--------------------------------------------------|

e :--9---------------|--9----------7----2---------|
B :7---9-----10-10---|7---9-----10---10-----3-----|
G :--------6---------|--------6-----------2---2-4-|
D :------6---------7-|------6-----------4-------0-|
A :----8--------9----|----8--------9--------------|
E :------------------|----------------------------|

e :4-------------------|2-------7--------------------2-|------------|
B :--5---5-------------|--3-2-----10-9-7-----------2---|2-3-------2-|
G :----7-----6-------3-|------7----------10-8-10-2-----|2-4-4---2---|
D :--------6---6---4---|-------------------------------|----4-------|
A :------4-------------|-------------------------------|------------|
E :--------------2-----|------7---8----9----9----2-----|------2-----|

COMBATE.
Este fichero es trabajo propio de su transcriptor y representa su interpretación personal de la canción. El material contenido en esta página es
para exclusivo uso privado, por lo que se prohibe su reproducción o retransmisión, así como su uso para fines comerciales.

© LaCuerda.net · Aviso Legal · Privacidad