Tablatura para Guitarra de Música de Películas: Volver al futuro
Conexión · Inscripción
Letras y Acordes
Pantalla Completa
Imprimir
Versión Texto
Añadir Favorito
Otras Versiones

Mostrar Diagramas
Desfile Automático
Manipular Acordes
Formato del Texto


Volver al futuro(TAB)

Música de Películas

calidad:
mdpe1851
AUTOR: Música de Películas  corregir
ALBUM: desconocido
Enviado por mauro
e|-------------------------------|
B|--------13-11--10--10----------|
G|-----11----------12--12--10h12~| X2
D|-/10---------------------------|
A|-------------------------------|
E|-------------------------------|

e|---------------------------------------------|
B|---------------------------------------------|
G|--------------------------------8-8--7-5h7h8-|
D|-/6---5--6h8p6-----5-6hp8-----6--------------|
A|----4----------8-4----------6----------------|
E|---------------------------------------------|

e|---------------------------------------10-10--9---9-10-|
B|-------------10------------10-------------------12-----|
G|-/12--11---12--12-9--11--12--12-----12-----------------|
D|----10-------------10-------------12-------------------|
A|-------------------------------------------------------|
E|-------------------------------------------------------|

e|-13~-12h10p12-10--8--10----------------------|
B|-------------------------9--7--6h4p6-4--2--4-|
G|---------------------------------------------|
D|---------------------------------------------|
A|---------------------------------------------|
E|---------------------------------------------|

e|-15-13~-12h10p12-10--8--10----------------------|
B|----------------------------9--7--6h4p6-4--2--4-|
G|------------------------------------------------|
D|------------------------------------------------|
A|------------------------------------------------|
E|------------------------------------------------|
Este fichero es trabajo propio de su transcriptor y representa su interpretación personal de la canción. El material contenido en esta página es
para exclusivo uso privado, por lo que se prohibe su reproducción o retransmisión, así como su uso para fines comerciales.

© LaCuerda.net · Aviso Legal · Privacidad