Tablatura para Bajo de Mon Laferte: Tu falta de querer
Conexión · Inscripción
Letras y Acordes
Pantalla Completa
Imprimir
Versión Texto
Añadir Favorito
Otras Versiones

Mostrar Diagramas
Desfile Automático
Formato del Texto


Tu falta de querer(BAJ)

Mon Laferte

calidad:
mlft0144
AUTOR: Mon Laferte  corregir
ALBUM: desconocido (2014)
Enviado por Alexis
Esta versión es en Bajo de 4 Cuerdas la Original lleva 5


Intro:

G|--------------------------------------------------------------
D|--------0--3--0-----0--3--0-----------4--7--4--------4--7--4--
A|--1--1-----------1--------------5--5-----------5--5-----------
E|--------------------------------------------------------------


G|-----------------------------------------------------------
D|--------8--------------------0--3--0-----------------------
A|--6--6-----9--8--8-----1--1--------------------------------
E|--------------------------------------1--1--1--1--1--1--1--


Verso:
(Pongo las notas para que sepan con que pueden jugar)

Hoy Volvi...

  A#                                 G
G|-----------------------------------------------------------------
D|-----------------------------------------------------------------
A|--1--1--------1-----1-----1--------------5-----5-----5-----5-----
E|--------1--1-----1-----1-----1-----3--3-----3-----3-----3-----3--

Nada Cambiara

   D#                                C
G|----------------------------------------------------------
D|----------------------------------------------------------
A|--6--6--------6-----6-----6--------------10---------8--8--
E|--------6--6-----6-----6-----6-----8--8------8--10--------

Te Quiero ver
  A#                                 G
G|-----------------------------------------------------------------
D|-----------------------------------------------------------------
A|--1--1--------1-----1-----1--------------5-----5-----5-----5-----
E|--------1--1-----1-----1-----1-----3--3-----3-----3-----3-----3--

No te deja ver
   D#                                C
G|-----------------------------------------------------------------
D|-----------------------------------------------------------------
A|--6--6--------6-----6-----6--------------10---------8-8-8-8-8-8--
E|--------6--6-----6-----6-----6-----8--8------8--10---------------

Coro:

Ven
G|--------------------------------------------------------------
D|--------0--3--0-----0--3--0-----------4--7--4--------4--7--4--
A|--1--1-----------1--------------5--5-----------5--5-----------
E|--------------------------------------------------------------

Piedaaad...
G|-----------------------------------------------------------
D|--------8-----------8-----------8--------------------------
A|--6--6-----9--6--6-----9--6--6-----9--8--8--8--8--8--8--8--
E|-----------------------------------------------------------


Como Fue
G|--------------------------------------------------------------
D|--------0--3--0-----0--3--0-----------4--7--4--------4--7--4--
A|--1--1-----------1--------------5--5-----------5--5-----------
E|--------------------------------------------------------------


Aqui acaba asi

G|-------------------
D|--------8----------
A|--6--6-----9--8/0--
E|-------------------
Este fichero es trabajo propio de su transcriptor y representa su interpretación personal de la canción. El material contenido en esta página es
para exclusivo uso privado, por lo que se prohibe su reproducción o retransmisión, así como su uso para fines comerciales.

© LaCuerda.net · Aviso Legal · Privacidad