Acordes de Guitarra » M »Molotov » Llorari (Tab)

Llorari
Molotov

Letras, Acordes y Tabs para Guitarra, Bajo y Ukulele

  • e-----------------------
    B-----------------------
    G-----------------------  x8 veces.
    D-----------------------
    A-----------------------
    E--3-3-1-3-4-3-3-1/3-3-3
    
    Estrofa 1
    
    e-7-3-------------------
    B-----6-8-3-------------
    G----------------------- x2
    D-----------------------
    A-----------------------
    E-----------------------
    
    Corox2
    
    e-----------------------------------------------------------------------------
    B-----0-------0-------0-------0------------0-------0-------0------------------
    
  • +
    ¡Colabora con nosotros!
    Envíanos tu versión de esta canción

Letra de Llorari
E--3-3-1-3-4-3-3-1/3-3-3
Estrofa 1
Corox2
Aqui en el puente es un acorde de sol mayor
y otro de sol sostenido mayor y si no
sabes como son aqui estan ambos
Sol# mayor
Estrofa 2
Parte 1
Parte 2
Despues va un solo de bajo y de guitarra juntos
con varios instrumentos de cuerda.
Y despues va el puente y el coro y ahi termina la cancion
Si tienen alguna duda por favor pregunten por correo que es
inquisidor9876@gmail.com




[Llorari chords][Llorari cifra]
© LaCuerda.net · aviso legal · privacidad · es · en · pt · contacto
DINAMICO