Acordes de Guitarra » M »Mexicanto » Nuria (Tab)

Nuria
Mexicanto

Letras, Acordes y Tabs para Guitarra, Bajo y Ukulele

  • B:-----------|------------|-----------|---------3---------|---3-1-0-----|
    G:-0---------|------------|-----------|-------------------|---------2---|
    D:-----------|-4----------|-2-------2-|-0-----------------|-------------|
    A:-----------|------------|-----------|-------------------|-3-----------|
    E:-----------|------------|-----------|-------------------|-------------|
    
    
    e:-----------------------------------|---0-2-3-2-0---2-3-0-2-3---0-2-3-2|
    B:-3-1-0---0-1--0----0-1-3-1-0-------|-3-----------3-----------3--------|
    G:-------2---------2-----------2-0-2-|----------------------------------|
    D:-----------------------------------|----------------------------------|
    A:-----------------------------------|----------------------------------|
    E:-----------------------------------|----------------------------------|
    
    
    e:-3-5-7-5-7-7-|-5-4-5-5-7/10-|-3---2-3-2-|-2----3-2-0---3-2-0---0-2----|
    B:-------------|--------------|-----------|------------3-------3--------|
    G:-----0-------|--------------|-----------|-----------------------------|
    D:-------------|-4------------|-2-------2-|-0---------------------------|
    A:-------------|--------------|-----------|-----------------------------|
    
  • +
    ¡Colabora con nosotros!
    Envíanos tu versión de esta canción

Letra de Nuria
e:-2-2-0-2-3-3-3-3-3-3-3-3-3-3-3-3-3-2-0-0-2-2-2-2-2-3-3-2-2-0-2-3-3-3--|
G:-0-0-0-0-0-0-0-0-0-0-0-0-0-0-0-0-0-0-0-0-0-0-0-0-0-0-0-0-0-0-0-0-0-0--|
e:-2-2-0-2-3-3-3-3-3-3-3-3-3-3-3-3-3-2-0-0-2-2-2-2-2-3-3-2-2-0-2-3-3-3--|
G:-0-0-0-0-0-0-0-0-0-0-0-0-0-0-0-0-0-0-0-0-0-0-0-0-0-0-0-0-0-0-0-0-0-0--|
Espero que la transcripción sea de su agrado y ya saben que cualquier aclaración o duda
pueden escribirme a demon_spindell@hotmil.com




[Nuria chords][Nuria cifra]
© LaCuerda.net · aviso legal · privacidad · es · en · pt · contacto
DINAMICO