Tablatura para Guitarra de Mercedes Sosa: Canción de las simples cosas
Conexión · Inscripción
Letras y Acordes
Pantalla Completa
Imprimir
Versión Texto
Añadir Favorito
Otras Versiones

Mostrar Diagramas
Desfile Automático
Manipular Acordes
Formato del Texto


Canción de las simples cosas(TAB)

Mercedes Sosa

calidad:
msos0593
AUTOR: Mercedes Sosa  corregir
ALBUM: desconocido
Enviado por gerardo
Introducción del Concierto Acústico Suiza 1980,
guitarra por "Nicolas Colacho Brizuela"

1|--13-15-13-12----12---------------------------------
2|--------------15----15-13-12-13-12-10----10---------
3|--------------------------------------12----12-10-9-
4|----------------------------------------------------
5|----------------------------------------------------
6|----------------------------------------------------

1|-------------------------------------------------7---10---12---
2|---------------------------------------------9-----9----9------
3|-9h10-9h10-9h10-9h10-9h10-9h10-9h10-9h10---9---9---------------
4|---------------------------------------------------------------
5|---------------------------------------------------------------
6|-8-------------------7-------------------0---------------------

Arreglo de estribillo

"...Donde encontraras,con el pan al sol, la mesa tendida"
1|-8------7-----5---4-----4-----4---7-----8-----7----5-----5----5-----
2|---10-----6-----4---3-----3-----3---6-----6-----6----5-----5----5---
3|------9-----7---------4-----4---------7-----7----------5-----5------
4|-7------5-----3---2-----2---------6-----------6---------------------
5|--------------------------------------------------------------------
6|---------------------------------------------------5----------------
Este fichero es trabajo propio de su transcriptor y representa su interpretación personal de la canción. El material contenido en esta página es
para exclusivo uso privado, por lo que se prohibe su reproducción o retransmisión, así como su uso para fines comerciales.

© LaCuerda.net · Aviso Legal · Privacidad