Tablatura para Guitarra de Melendi: Carlota
Conexión · Inscripción
Letras y Acordes
Pantalla Completa
Imprimir
Versión Texto
Añadir Favorito
Otras Versiones

Mostrar Diagramas
Desfile Automático
Manipular Acordes
Formato del Texto


Carlota(TAB)

Melendi

calidad:
mele0322
AUTOR: Melendi
ALBUM: Que el Cielo Espere Sentao (2005)
Enviado por ameriko
la culpa de hacer esta transcripción la tiene mi hija
Emy la «pequeña voz de mi conciencia» jajaja U_U

::: Intro :::

e||-----------------------|------------------------|
B||---------5-----3-----2-|---------3-----2-----0--|
G||-------2-----2-----2---|-------0-----0-----0----|
D||-----4-----4-----4-----|-----2-----2-----2------|
A||---2-------------------|------------------------|
E||-----------------------|---0--------------------|

e||---------------0-------|------------------------|
B||---------3-------------|---------5-----3--------|
G||-------3-----3---------|-------2-----2----------|
D||-----2-----2-----------|-----4-----4------------|
A||-----------------------|---2--------------------|
E||---2-------------------|------------------------|


Jamás pensé que sentiría lo que siento
e||-----------------------|
B||---------5-----3-----2-|
G||-------2-----2-----2---|
D||-----4-----4-----4-----|
A||---2-------------------|
E||-----------------------|


Todavía tu madre te lleva dentro
e||------------------------|---------------0-------|
B||---------3-----2-----0--|---------3-------------|
G||-------0-----0-----0----|-------3-----3---------|
D||-----2-----2-----2------|-----2-----2-----------|
A||------------------------|-----------------------|
E||---0--------------------|---2-------------------|


Y yo te llevo en el alma
e||------------------------|
B||---------5-----3--------|
G||-------2-----2----------|
D||-----4-----4------------|
A||---2--------------------|
E||------------------------|


Porque eres tú la melodía en mis canciones
e||----------------------------|
B||---------5-----3-----2------|
G||-------2-----2-----2----2---|
D||-----4-----4-----4--------4-|
A||---2------------------------|
E||----------------------------|


Porque eres tú la que da luz a los rincones
e||------------------------|---------------0-------|
B||---------3-----2-----0--|---------3-------------|
G||-------0-----0-----0----|-------3-----3---------|
D||-----2-----2-----2------|-----2-----2-----------|
A||------------------------|-----------------------|
E||---0--------------------|---2-------------------|

Más oscuros de mi alma
e||---------------2-3-2-0--|
B||---------5--------------|
G||-------2-----2----------|
D||-----4-----4------------|
A||---2--------------------|
E||------------------------|



SOL SIm Te quiero niña hasta hacerme llorar
MIm Regalo del cielo prometo cuidar
FA# Dándote mi vida
SOL SIm Y pido perdón por los errores que todavía no cometí
FA# Porque yo quiero serlo todo para ti
SIm Y me da miedo no saberte demostrar
SOL SIm Que mi corazón fue con el tuyo con el que empezó a latir
FA# Y aunque la vida me congele con su aliento
MIm FA# Vivirán mis sentimientos sólo con oír tu voz :::: arpegios de la primera parte :::: Jamás pensé que se reiría mi tristeza Tu das calor a la mañana más sombría Me trajiste la alegría Porque eres tu quien da sentido a mi existencia Porque llegaste cuando más necesitaba Cuando la vida me ahogaba
SOL SIm Te quiero niña hasta hacerme llorar
MIm Regalo del cielo prometo cuidar
FA# Dándote mi vida
SOL SIm Y pido perdón por los errores que todavía no cometí
FA# Porque yo quiero serlo todo para ti
SIm Y me da miedo no saberte demostrar
SOL SIm Que mi corazón fue con el tuyo con el que empezó a latir
FA# Y aunque la vida me congele con su aliento
MIm FA# Vivirán mis sentimientos sólo con oír tu voz ::: solo guitarra :::
SOL SIm MIm FA#
SOL SIm Y pido perdón por los errores que todavía no cometí
FA# Porque yo quiero serlo todo para ti
SIm Y me da miedo no saberte demostrar
SOL SIm Que mi corazón fue con el tuyo con el que empezó a latir
FA# Y aunque la vida me congele con su aliento
MIm FA# Vivirán mis sentimientos sólo con oír tu voz
SIm FA# MIm Duerme niña tu tranquila
LA FA# De tus sueños cuidaré
FA# MIm LA y cuando tu tengas pesadillas
FA# yo les haré cosquillas
SIm Para que te rías también
MIm SIm Duerme niña tu tranquila
MIm SIm De tus sueños cuidaré
FA# MIm y cuando tu tengas pesadillas...
Este fichero es trabajo propio de su transcriptor y representa su interpretación personal de la canción. El material contenido en esta página es
para exclusivo uso privado, por lo que se prohibe su reproducción o retransmisión, así como su uso para fines comerciales.

© LaCuerda.net · Aviso Legal · Privacidad