Tablatura para Guitarra de Melendi: Canción de amor caducada
Conexión · Inscripción
Letras y Acordes
Pantalla Completa
Imprimir
Versión Texto
Añadir Favorito
Otras Versiones

Mostrar Diagramas
Desfile Automático
Manipular Acordes
Formato del Texto


Canción de amor caducada(TAB)

Melendi

calidad:
mele0782
AUTOR: Ramón Melendi
ALBUM: Volvamos a Empezar (2010)
Enviado por Alejandro
Hola,
En mi versión de esta canción de Melendi no utilizo cejilla.
Espero que os guste, es mi primer tab en la lacuerda.net

Riff

-----------------------------------------------------------
-----------------------------------5-----2--2--2--0--------
--4--6---6---4---2--4--6-----4--4-----4---------------2--2-
-----------------------------------------------------------
-----------------------------------------------------------
-----------------------------------------------------------


----------------------------------------------------------
--2--2--3--2--0----------------5--------------------------
-------------------------4--6-----6--4--6--4--2--2---4----
----------------2--4--2---------------------------------2-
----------------------------------------------------------
----------------------------------------------------------


Empieza... :)

Riff

D A No quiero cantos de sirenas
D A no quiero nudos de garganta
E F#m D no quiero bailar con la pena
D A porque me da miedo pisarla
D A no quiero saber de lo que hablo
D A no quiero andarme por las ramas
E F#m D no quiero saber por diablo
D A lo que por viejo se me escapa.
D No conozco mandamientos
A más allá de mis narices
E por eso llevo remiendos
B en el alma y cicatrices
B B C# D y mi corazón ya viejo
A maltratado con estrías
E de tanto mezclar las penas
B con tan pocas alegrías. #Estribillo:
D Tengo una vena averiada
A en el corazón
E que está muy mala y se cala
B cuando te veo mi amor
B B C# D tengo una vena averiada
A y está canción
E de amor que está caducada.
D A No quiero tirar la toalla
D A ni morir en un escenario
E F#m D quiero venir cuando tú vayas
D A y ver mi nombre en tu diario.
D A Ser como el calvo que se rapa
D A al cero siempre la cabeza
E F#m D porque prefiere sentar solo
D A a que le empuje la certeza.
D No conozco mandamientos
A más allá de mis narices
E por eso llevo remiendos
B en el alma y cicatrices
B B C# D y mi corazón ya viejo
A maltratado con estrías
E de tanto mezclar las penas
B con tan pocas alegrías. Estribillo x 2 Riff + (257) 2ª cuerda
FA#m No se que haces siempre
E FA#m metida en mi sangre
A D ya he probado el fondo
E FA#m (2424) hammer y pull-off 4ªcuerda y no me gusta como sabe.
D No prenden las luces
E FA#m de mi lado oscuro
A D Mi mayor pecado
E FA#m no dejar ninguno. Estribillo x 2
Este fichero es trabajo propio de su transcriptor y representa su interpretación personal de la canción. El material contenido en esta página es
para exclusivo uso privado, por lo que se prohibe su reproducción o retransmisión, así como su uso para fines comerciales.

© LaCuerda.net · Aviso Legal · Privacidad