Tablatura para Guitarra de Mecano: Hijo de la Luna
Conexión · Inscripción
Letras y Acordes
Pantalla Completa
Imprimir
Versión Texto
Añadir Favorito
Otras Versiones

Mostrar Diagramas
Desfile Automático
Manipular Acordes
Formato del Texto


Hijo de la Luna(TAB)

Mecano

calidad:
mecn0114
AUTOR: José María Cano
ALBUM: Entre el Cielo y el Suelo (1986)
Enviado por F.
Hola que tal a todos colaboradores de la cuerda excelente web.
Aqui les mando otra tablatura hace mucho que no hacia una, espero
que el sonido sea de su agrado.
Esta canción fue un exito de mecano y se la quiero dedicar,
a una amiga de la secundaria Monica Olvera Campos. Que espero
se encuentre excelentemente bien.


---------0-4-----------------|
-----2-4-----4----2----------|
-----------------------------|
-----------------------------|
-----------------------------|
-----------------------------|


---------0-4-------------------|-----0-2-4-9------------------4---------|
-----2-4-----4----2------------|-------------9--7-----4-5---4----2------|
-------------------------------|------------------------6---------------|
-------------------------------|----------------------------------------|
-------------------------------|----------------------------------------|
-------------------------------|----------------------------------------|

-----------0------------------------|
---------2---4--L--0--2-------------|
----2-------------------------------|
------------------------------------|
------------------------------------|
------------------------------------|

------0-2-4-9------------------4---------------|
--------------9--7---------4-5---4----2--------|
-------------------------6-------------------2-|
-----------------------------------------------|
-----------------------------------------------|
-----------------------------------------------|

---------0----------------------|
-------2---4--L--0--2-----------|
--L--L--------------------------|
--------------------------------|
--------------------------------|
--------------------------------|


------------------0-4------------|-----------0--2----------0-4----------|
--------------2-4-----4----2-----|-----2--4------------2-4-----4----2---|
---------------------------------|--------------------------------------|
---------------------------------|--------------------------------------|
---------------------------------|--------------------------------------|
---------------------------------|--------------------------------------|



---------------0--2----0-2-4-9-----------|
-----2--4----------------------9--7------|
-----------------------------------------|
-----------------------------------------|
-----------------------------------------|
-----------------------------------------|




-----------4--------------------0----------|------------0-2-4-9---------|
-------4-5---4----2-----------2---4--L--0--|--2-----------------9--7----|
-----6-------------------2-----------------|----------------------------|
-------------------------------------------|----------------------------|
-------------------------------------------|----------------------------|
-------------------------------------------|----------------------------|


-----------4--------------------0----------|-------------------------|
-------4-5---4----2-----------2---4----0-L-|--L-2--------------------|
-----6-------------------2-----------------|-------------------------|
-------------------------------------------|-------------------------|
-------------------------------------------|-------------------------|
-------------------------------------------|-------------------------|


-------4-4-2----------2------4----6-4-3--4----|
---------------4------------------------------|
----------------------------------------------|
----------------------------------------------|
----------------------------------------------|
----------------------------------------------|


---------4-6-7--6--4-------4------------|
----------------------4------4-2--0--2--|
----------------------------------------|
----------------------------------------|
----------------------------------------|
----------------------------------------|

---------4-4-2---------2------4----6-4-3--4----|
--4-------------4------------------------------|
-----------------------------------------------|
-----------------------------------------------|
-----------------------------------------------|
-----------------------------------------------|


--L----4-6-7--6--4-------------4-------|--------------------------------|
-------------------4--------4-2--0--2--|--4-----2----0-2-4-----2----0-2-|
---------------------------------------|--------------------------------|
---------------------------------------|--------------------------------|
---------------------------------------|--------------------------------|
---------------------------------------|--------------------------------|

-----------------------|-------------0--L--------------------|
--4------------L---L---|-------0-2-4-------4--2----L---------|
-----------------------|-----2-------------------------------|
-----------------------|-------------------------------------|
-----------------------|-------------------------------------|
-----------------------|-------------------------------------|







-------------------0-4------------|
---------------2-4-----4----2-----|
----------------------------------|
----------------------------------|
----------------------------------|
----------------------------------|


--------------0--2----------0-4-------------|
------2--4--------------2-4-----4----2------|
--------------------------------------------|
--------------------------------------------|
--------------------------------------------|
--------------------------------------------|

----------------0--2----0-2-4-9----------|
------2--4----------------------9--7-----|
-----------------------------------------|
-----------------------------------------|
-----------------------------------------|
-----------------------------------------|

------------4--------------------0------------|
--------4-5---4----2-----------2---4--L--0--2-|
------6-------------------2-------------------|
----------------------------------------------|
----------------------------------------------|
----------------------------------------------|

-------------------0-2-4-9-----------|
--L--L--L------------------9--7------|
-------------------------------------|
-------------------------------------|
-------------------------------------|
-------------------------------------|


-----------4--------------------0----------|-----|
-------4-5---4----2-----------2---4--L--0--|--2--|
-----6-------------------2-----------------|-----|
-------------------------------------------|-----|
-------------------------------------------|-----|
-------------------------------------------|-----|

-------4-4-2----------2------4----6-4-3--4--L----|
---------------4---------------------------------|
-------------------------------------------------|
-------------------------------------------------|
-------------------------------------------------|
-------------------------------------------------|

-------4-6-7--6--4-------4--------------|
--------------------4------4-2--0--2--4-|
----------------------------------------|
----------------------------------------|
----------------------------------------|
----------------------------------------|



-------4-4-2---------2------4----6-4-3--4--L--L-|
--L-----------4---------------------------------|
------------------------------------------------|
------------------------------------------------|
------------------------------------------------|
------------------------------------------------|

-------4-6-7--6--4-------------4--------------|
------------------------4--------4-2--0--2--4-|
----------------------------------------------|
----------------------------------------------|
----------------------------------------------|
----------------------------------------------|

------------------------------------|-----------------------|
--L--L----2----0-2-4-----2----0-2-4-|--L------------L---L---|
------------------------------------|-----------------------|
------------------------------------|-----------------------|
------------------------------------|-----------------------|
------------------------------------|-----------------------|

-------------0--L----------------|
-------0-2-4-------4--2----L-----|
-----2---------------------------|
---------------------------------|
---------------------------------|
---------------------------------|

---------0-4----------|-------------0--2----------0-4----------|
-----2-4-----4----2---|-----2--4--------------2-4-----4----2---|
----------------------|----------------------------------------|
----------------------|----------------------------------------|
----------------------|----------------------------------------|
----------------------|----------------------------------------|

---------------0--2----0-2-4-9---------|
-----2--4----------------------9--7----|
---------------------------------------|
---------------------------------------|
---------------------------------------|
---------------------------------------|

-----------4----------------0----------|---------------0-2-4-9----------|
-------4-5---4----2-------2---4----0-L-|--L-2------------------9--7-----|
-----6-------------------2-------------|--------------------------------|
---------------------------------------|--------------------------------|
---------------------------------------|--------------------------------|
---------------------------------------|--------------------------------|

------------4--------------------0------------|
--------4-5---4----2-----------2---4--L--0--2-|
------6-------------------2-------------------|
----------------------------------------------|
----------------------------------------------|
----------------------------------------------|

----------4-4-2----------2------4----6-4-3--4--L-|
------------------4------------------------------|
-------------------------------------------------|
-------------------------------------------------|
-------------------------------------------------|
-------------------------------------------------|


---------4-6-7--6--4-------4-------------|
----------------------4------4-2--0--2-L-|
-----------------------------------------|
-----------------------------------------|
-----------------------------------------|
-----------------------------------------|

-----------4-4-2---------2------4----6-4-3--4--L-|
--L-4-------------4------------------------------|
-------------------------------------------------|
-------------------------------------------------|
-------------------------------------------------|
-------------------------------------------------|

--L-------4-6-7--6--4-------------4-------------|
---------------------------4--------4-2--0--2-L-|
------------------------------------------------|
------------------------------------------------|
------------------------------------------------|
------------------------------------------------|

----------------------------------|-------------------------|
--L-4-----2----0-2-4-----2----0-2-|--L-4------------L---L---|
----------------------------------|-------------------------|
----------------------------------|-------------------------|
----------------------------------|-------------------------|
----------------------------------|-------------------------|

--------------0--L------------------|-------------------|
--------0-2-4-------4--2----L-------|-------------------|
------2-----------------------------|-------------------|
------------------------------------|-------------------|
------------------------------------|-------------------|
------------------------------------|-------------------|

------------------0-4------------|-----------0--2----------0-4----------|
--------------2-4-----4----2-----|-----2--4------------2-4-----4----2---|
---------------------------------|--------------------------------------|
---------------------------------|--------------------------------------|
---------------------------------|--------------------------------------|
---------------------------------|--------------------------------------|

---------------0--2----0-2-4-9-----------|
-----2--4----------------------9--7------|
-----------------------------------------|
-----------------------------------------|
-----------------------------------------|
-----------------------------------------|



-----------4--------------------0----------|----------------------|
-------4-5---4----2-----------2---4--L--0--|--2-------------------|
-----6-------------------2-----------------|----------------------|
-------------------------------------------|----------------------|
-------------------------------------------|----------------------|
-------------------------------------------|----------------------|
Este fichero es trabajo propio de su transcriptor y representa su interpretación personal de la canción. El material contenido en esta página es
para exclusivo uso privado, por lo que se prohibe su reproducción o retransmisión, así como su uso para fines comerciales.

© LaCuerda.net · Aviso Legal · Privacidad