Acordes de Guitarra » M »Maskatesta » Cuando no esté yo (Tab)

Cuando no esté yo
Maskatesta

  •     F              Am
    ----1----       ----5----
    ----1----       ----5----
    ----2----       ----5----
    ----3----       ----7----
    ----3----       ----7----
    ----1----       ----5----
    
       Gm               C
    ----3----       ----3----
    ----3----       ----5----
    ----3----       ----5----
    ----5----       ----5----
    ----5----       ----3----
    ----3----       ----3----
    
    
    Intro
    F  Am  Gm  C
                F
    
  • +
    ¡Colabora con nosotros!
    Envíanos tu versión de esta canción

Letra de Cuando no esté yo
Se que has visto de mi
una infelicidad
se que has mirado mis pies
ya cansados de andar
que has mirado mi vista
como queriendo llegar
al final de esta vil rutina
queriendo descansar
pero al final de ese camino
cuando no exista yo al final
de ese destino
no tengo mas que discutir
es demasiado para mi
porque voy muriendo lento
y arriba mirando al cielo
donde algún día llegare
donde quizás no volveré
porque voy muriendo lento
y de arriba mirando al cielo
donde algún día llegare, llegare
cuando no este yo
pero al final de ese camino
cuando no exista yo al final
de ese destino
no tengo mas que discutir
es demasiado para mi
porque voy muriendo lento
y arriba mirando al cielo
donde algún día llegare
donde quizás no volveré
porque voy muriendo lento
y de arriba mirando al cielo
donde algún día llegare, llegare
cuando no este yo
cuando no este yo
cuando no este yo
Dedicada a Peque, de Jony




[Cuando no esté yo chords][Cuando no esté yo cifra]
© LaCuerda.net · aviso legal · privacidad · es · en · pt · contacto
DINAMICO