Acordes de Guitarra » M »Marcos Witt » Solo en tí (Tab)

Solo en tí
Marcos Witt

Letras, Acordes y Tabs para Guitarra, Bajo y Ukulele

  • Intro: C - G - Am - F
    
    C         G          Am              G
       ME GOZARE EN MI SEÑOR CON TODA EL ALMA
    C           G         Am              G
       ME ALEGRARE EN SU AMOR Y EN SU ESPERANZA
    Dm        Am              G             F
       Y CANTARE AL QUE ES MI LUZ Y SALVACION
    
    Coro:
            C        G        Dm        F
    SOLO EN TI VENCERE, LA MONTAÑA SUBIRE
            C        G         Dm        F
    SOLO EN TI DANZARE, CON TU GOZO VIVIRE
         C G         Am F     C G     Am F
    JE - SUS,  JE  - SUS,  JE-SUS, JE-SUS,
    
    
    C         G          Am              G
       ME GOZARE EN MI SEÑOR CON TODA EL ALMA
    
  • Intro: C - G - Am - F - C/E F - F
    
    C         G          Am              G
       ME GOZARE EN MI SEÑOR CON TODA EL ALMA
    C           G         Am              G
       ME ALEGRARE EN SU AMOR Y EN SU ESPERANZA
    Dm        Am              G             F
       Y CANTARE AL QUE ES MI LUZ Y SALVACION
    
    Coro:
            C        G        Dm        F
    SOLO EN TI VENCERE, LA MONTAÑA SUBIRE
            C        G         Dm        F
    SOLO EN TI DANZARE, CON TU GOZO VIVIRE
         C G         Am F     C G     Am F
    JE - SUS,  JE  - SUS,  JE-SUS, JE-SUS,
    
    
    C         G          Am              G
       ME GOZARE EN MI SEÑOR CON TODA EL ALMA
    
  • Intro: C G C/A F C/E FF                  *
    
    C      G          C/A              Gsus
    Me gozare en mi Señor con toda el alma
    C         G         C/A             Gsus
    Me alegrare en su amor y en su esperanza
    F/D     C/A              Gsus       F
    Y cantare al que es mi luz y salvación
    
    Coro:
            C        G        F/D        F
    Solo en ti venceré, la montaña subiré
            C        G        F/D        F
    Solo en ti danzare, con tu gozo viviré
          C G         C/A F     C G    C/A F
    -Je - sús,  Je  - sús,  Je-sús, Je-sús,
    
    --: F C/E F C/E F
    Am G/E G D
    Am G/E G (Notas: LA SOL FA# MI RE MI FA)
    
  • ME GOZARE EN TI SEÑOR CON TODA EL ALMA
    
    G:--------------------------------------
    D:--------------------------------------
    A:3--3-3---------------------------------
    E:-------3--3--3--3s-5--5--5-5--5s--3-3--
    
     ME ALEGRARE EN SU AMOR Y SU ESPERANZA
    
    G:---------------------------------------
    D:---------------------------------------
    A:3--3-3-3-------------------------------
    E:---------3--3--3s--5--5--5--5--5-5s-3-3
    
     Y CANTARE AL QUE ES MI LUZ Y SALVACION
    
    G:--------------------------------
    D:0--0-0--------------------------
    A:-------0--0--0-0--0-------------
    E:---------------------3s---1-----
    
    
    CORO
    
      SOLO EN TI VENCERE
    
    G:----------------
    D:----------------
    A:------3---------
    E:1-1-1-----3-3---
    
      LA MONTAÑA SUBIRE
    
    G:--------------------------------------
    D:---------------------------------------
    A:----5-5-5s---8------------------------------
    E:3-3--------------------------------------
    
      SOLO EN TI DANZARE
    
    G:-------------------
    D:-------------------
    A:8-8--8-------10----
    E:-------8
  • +
    ¡Colabora con nosotros!
    Envíanos tu versión de esta canción

Letra de Solo en tí
ME GOZARE EN MI SEÑOR CON TODA EL ALMA
ME ALEGRARE EN SU AMOR Y EN SU ESPERANZA
Y CANTARE AL QUE ES MI LUZ Y SALVACION
JE - SUS, JE - SUS, JE-SUS, JE-SUS,
ME GOZARE EN MI SEÑOR CON TODA EL ALMA
ME ALEGRARE EN SU AMOR Y EN SU ESPERANZA
Y CANTARE AL QUE ES MI LUZ Y SALVACION
JE - SUS, JE - SUS, JE-SUS, JE-SUS,
//ERES LA VIDA DE MI CORAZON,
TU ERES EL CENTRO DE MI ADORACIÓN//
JE - SUS, JE - SUS, JE-SUS, JE-SUS///
Esta es la canción de promoción del Concierto Alegría
de Marcos Witt, el 2006 en la Arena Santiago (Chile)
Espero que sea de gran Bendición para cada unos de Ustedes,
y un gran saludo a la Cuarta Iglesia Bautista de
San Bernardo (Santiago, Chile)




[Solo en tí chords][Solo en tí cifra]
© LaCuerda.net · aviso legal · privacidad · es · en · pt · contacto