Acordes de Guitarra » M »Marcos Witt » Se oye en las naciones (Tab)

Se oye en las naciones
Marcos Witt

Letras, Notas, Punteos, Tablaturas y Acordes de Guitarra (Tabs & Chords)

  • Letra y Acordes
    INTRO:   Gm7   (C#-D-C-A#-D-F-B-G)
    
    Gm7
    SE OYE EN LAS NACIONES HAY UN CANTO NUEVO
    
    QUE SE ESTA CANTANDO HOY
    Gm7
    SE ESCUCHA EN LOS LABIOS DE GRANDES MULTITUDES
    
    ES UN CANTO DE GRATITUD
    C7
    HACIA EL QUE NOS BRINDA DE SU AMOR ETERNO
    
    Y NOS HA TRAIDO PERDON
    Gm7
    UNETE A LOS MILES QUE LO ESTAN CANTANDO
    
    CANTAN DE SU GRAN SALVACION
    
                Gm                  F
    
  • Tab p/Bajo
    Afinación: G D A E
    
      Intro
    G |---------------------------------------------------3---------------
    D |-----5----3-------5----3-------5----3-----5----3-------------------
    A |-------3h5----------3h5----------3h5--------3h5--5-----------------
    E |-3------------3------------3------------3--------------------------
    
    G |---------------------------------------------------------3--|
    D |-----5----3-------5----3-------5----3-----------------------|
    A |-------3h5----------3h5----------3h5---------5-4-3---3-5----|
    E |-3------------3------------3------------3----------5--------|
    
      Versos
    G |-------------------------------------------------------------------
    D |-----5----3-------5----3-------5----3-------5-------------5----3---
    A |-------3h5----------3h5----------3h5-----------3------------3h5----
    E |-3------------3------------3------------3--------------3-----------
    
    G |--------------------------------------------5----3-------5----3----
    D |-----5----3-------5----3-------5----3---------3h5--------
  • +
    ¡Colabora con nosotros!
    Envíanos tu versión de esta canción

Letra de Se oye en las naciones
SE OYE EN LAS NACIONES HAY UN CANTO NUEVO
QUE SE ESTA CANTANDO HOY
SE ESCUCHA EN LOS LABIOS DE GRANDES MULTITUDES
ES UN CANTO DE GRATITUD
HACIA EL QUE NOS BRINDA DE SU AMOR ETERNO
Y NOS HA TRAIDO PERDON
UNETE A LOS MILES QUE LO ESTAN CANTANDO
CANTAN DE SU GRAN SALVACION
CANTAMOS CRISTO ES EL SEÑOR DE LAS NACIONES
CRISTO ES EL SEÑOR DEL UNIVERSO
CADA LENGUA TRIBU Y CADA PUEBLO
EN SUS RODILLAS DECLARARAN QUE ES SEÑOR
//CRISTO, CRISTO, JESUCRISTO, JESUCRISTO
CRISTO CRISTO ES SEÑOR//



© LaCuerda.net · Aviso Legal · Privacidad