Acordes de Guitarra » M »Marcos Witt » No cambiaría (Tab)

No cambiaría
Marcos Witt

Letras, Acordes y Tabs para Guitarra, Bajo y Ukulele

  •   Cm               Bb/C
    Me has enseñado a amar tu palabra
    
               Cm                   Bb/C
    me has enseñado a vivir en tu justicia
    
         Cm               Bb/C
    cada dia que yo he vivido
    
               Cm                    Bb/C   
    me has enseñado a creer que tú conmigo estas
    
    
    Fm                      Cm
    Eres todo lo que yo puedo desear
    
    Fm               Gsus4
    eres simplemente todo para mi
    
    
    
  •   DOm     DOm   Dom(Maj7)  FA9sus4/DO
    ME HAS ENSEÑADO A AMAR TU   PALABRA
      DOm     DOm   Dom(Maj7)  FA9sus4/DO
    ME HAS ENSEÑADO A VIVIR EN TU JUSTICIA
      DOmDOm  Dom(Maj7) FA9sus4/DO
    CADA DIA QUE YO HE    VIVIDO 
      DOm     DOm   Dom(Maj7)     FA9sus4/DO
    ME HAS ENSEÑADO A CREER QUE TU CONMIGO ESTAS
    FAm7                DOm
    ERES TODO LO QUE YO PUEDO DESEAR
    FAm7            SOLsus4   SOL
    ERES SIMPLEMENTE TODO PARA MI
      LSIb    DDOm    Lab(add9)    Sib(add9)        Dom
    Y NO CAMBIARIA POR NADA QUE ME PUEDA EL MUNDO DAR
    SOLLSIb     DOm    Lab(add9)   Sib(add9)        SOLsus4
    NUNCA CAMBIARIA LA GRACIA Y LA VERDAD QUE PUDE HALLAR
    SOLDOm             DOm    Dom(Maj7)  FA9sus4/DO
           TAN SOLO EN TI
      DOm      DOm  Dom(Maj7)   FA9sus4/DO
    ME HAS DADO LO QUE YO NO      MERECIA
    
  •          Am        Am (maj7)   D9sus4/A
             Dm        Dm (maj7)   G9sus4/D
    Me has enseñado a amar tu palabra
             Am        Am (maj7)   D9sus4/A
             Dm        Dm (maj7)   G9sus4/D
    Me has enseñado a vivir en tu justicia
         Am     Am (maj7)   D9sus4/A
         Dm     Dm (maj7)   G9sus4/D
    Cada día que yo he vivido
             Am        Am (maj7)   D9sus4/A
             Dm        Dm (maj7)      G9sus4/D
    Me has enseñado a creer que tu conmigo estas
    
    Dm                    Am
    Gm                    Dm
    Eres todo lo que yo puedo desear
    Dm               Esus4       E
    Gm               Asus4       A
    Eres simplemente todo para mí
    
    
  • Afinación: G D A E
    
    Intro:(0:14)
    G |------------------------------------------------------------------
    D |------------------------------------------------------------------
    A |-----------------------------------------------------5------------
    E |-------1-----------3-----------2-----------1-------------------0--
    
    
               (0:50)
    G |--------|----------------------------------------------------------
    D |--------|----------------------------------------------------------
    A |--------|----3-3-3-3-3-3-3-3-3-3-3-3-3-3-3-3-----------------------
    E |-1----3-|-/\---------------------------------4-4-4-4-4-4-4-4-1-1-1-
    
    
                X3
    G |-----------|-------------------------------------------------------
    D |-----------|-------------------------------------------------------
    A |---1-1-1-1-|-----------------1-1-1-1---------3-3-3-3-3-3-3-3-3-3-3-
    E |-1---------|-1-1-1-1-1-1-1-1---------3-3-3-3-----------------------
    
    
                X1 Intervención
    G |-----------|------------|----------------------
  • +
    ¡Colabora con nosotros!
    Envíanos tu versión de esta canción

Letra de No cambiaría
Me has enseñado a amar tu palabra
me has enseñado a vivir en tu justicia
cada dia que yo he vivido
me has enseñado a creer que tú conmigo estas
Eres todo lo que yo puedo desear
eres simplemente todo para mi
Yo no cambiaria por nada que me pueda el mundo dar
nunca cambiaria la gracia y la verdad
que pude hallar...tan solo en Tí
Me has dado lo que yo no merecia
me has dado amor y perdon en vez de afliccion
En la cruz derramastre tu vida
para entregarme asi completa salvacion




[No cambiaría chords][No cambiaría cifra]
© LaCuerda.net · aviso legal · privacidad · es · en · pt · contacto