Acordes de Guitarra » M »Marcos Witt » Con tu sangre (Tab)

Con tu sangre
Marcos Witt

Letras, Acordes y Tabs para Guitarra, Bajo y Ukulele

  • Intro:/D G D A/
    
            D
    Con tu sangre
              Dsus4                D   Dsus4 D
    nos has redimido para nuestro Dios
              A              Asus4 A      D   Dsus4 D A
    de todo linaje, pueblo, lengua  y nación.
                   D          Dsus4                  
    Nos has hecho reyes y sacerdotes 
                   D   Dsus4 D
    para nuestro Dios
            A              Asus4  A G
    y reinaremos sobre la tierra;
                  A        D
    gloria al Cordero de Dios.
    
    
    D G  A  Asus4 A A7       G        D     Dsus4  
    Exaltad           al Cordero de gloria,
    
  • introd.    D     G       G/E       Aadd2        (acordes) se repite //
              F#ED   G  EF#   G   F#E   A     C#DE  (notas)   se repite //
    
           D
    Con tu sangre
              Dsus4                D   Dsus4 D
    nos has redimido para nuestro Dios
             Aadd2          Asus4  A      D   Dsus4 D   A7
    de todo linaje, pueblo, lengua   y nación.
                   D          Dsus4
    Nos has hecho reyes y sacerdotes
                   D   Dsus4 D
    para nuestro Dios
          Aadd2              Asus4  A
    y reinaremos sobre la tierra;
    G            A7        D
    gloria al Cordero de Dios.
    
    
    D6 G Aadd2  Asus4 Aadd2        G        D     Dsus4
    
  •         D               G/D                   D
    Con tu sangre nos has redimido para nuestro Dios
               A           G     A       D
    de todo linaje pueblo lengua   y nación
    D                          G/D                  D
    nos has hecho reyes y sacerdotes para nuestro Dios
            A              G/A  A   G           A        D
    y reinaremos sobre la tierra  gloria al cordero de Dios
    
    
    -- CORO --
    D  G   A         G        D     D G   A          G      D
    E-xal-tad al cordero de gloria, a-do-rad al que vive y reina
    D  G  A             G             D/F#      A        D
    a-do-rad al Dios altisimo, Padre eterno cordero de Dios.
  • :Intro de Piano:
    :Piano e Insttumentos:
    
    G] :---------------:
    D] :---------------:
    A] :---2-5-7-------:
    E] :--------3-5----:
    
    :Estrofa:
    :Entrada del Bajo en Estrofa:
    
                    Nos has hecho Reyes....
    G] :---------------:---------------:---------------:---------------:
    D] :---------------:---------------:---------------:---------------:
    A] :------------12-:----5--5-5-----:-----5--5-5----:----5--5-5-----:
    E] :---------------:---------------:---------------:---------------:
    
                     Y Reinaremos...
    G] :---------------:---------------:---------------:--------------:------------:
    D] :---------------:---------------:---------------:--------------:------------:
    A] :----5--5-5-----:---------------:---------------:--------------:-5---------5:
    E] :--------------7:-----5--5-5----:--5--5-5------2:-3---3-5------:------------:
    
    :Coro:
    
          E  -  xal   -  tad ...
    G] :---------------:---------------:-----------------:--------------:
    D] :---------------:----
  • +
    ¡Colabora con nosotros!
    Envíanos tu versión de esta canción

Letra de Con tu sangre
Con tu sangre
nos has redimido para nuestro Dios
de todo linaje, pueblo, lengua y nación.
Nos has hecho reyes y sacerdotes
para nuestro Dios
y reinaremos sobre la tierra;
gloria al Cordero de Dios.
Exaltad al Cordero de gloria,
adorad al que vive y reina,
adorad al Dios Altísimo,
Padre eterno, Corde--ero de Dios.




[Con tu sangre chords][Con tu sangre cifra]
© LaCuerda.net · aviso legal · privacidad · es · en · pt · contacto