Acordes de Guitarra » M »Marcos Witt » Con todo el gozo (Tab)

Con todo el gozo
Marcos Witt

Letras, Acordes y Tabs para Guitarra, Bajo y Ukulele

  • Intro: G - Em - F  x4
    
    
    G       Em       F    C
    Todo lo que respira
    G       Em       F    C
    Todo lo que se mueve
    Am   Em   C    D
    Te alabe, te alabe
    G        Em       F    C
    Todo el que tiene vida
    G        Em       F    C
    Y en el señor se muere
    Am   Em   C    D
    Te alabe, te alabe
    
    
    Coro:
    
    G      Bm      C
    
  •       G       Em              C       D
    E|------------------------------------------------------
    A|----------------------------10------------------------
    D|----------------9-------9-7----7h9-7------------------
    G|--------9-7-9-7---7h9-7-------------------------------
    B|----6/8-----------------------------------------------
    e|------------------------------------------------------
    
        2:26                                     2:32
          G       Em              C       D
    E|------------------------------------------------------
    A|----------------------------10------------------------
    D|----------------9-------9-7---------------------------
    G|--7-----9-7-9-7---7h9-7--------7/9-7-----------7------
    B|----6/8------------------------------------8h7--------
    e|------------------------------------------------------
    
    
    
    Los demas instrumentos pueden ir marcando como base:
    
  • +
    ¡Colabora con nosotros!
    Envíanos tu versión de esta canción

Letra de Con todo el gozo
Todo lo que respira
Todo lo que se mueve
Te alabe, te alabe
Todo el que tiene vida
Y en el señor se muere
Te alabe, te alabe
Con todo el gozo
Con toda la vida
Con la alegría
Te alabe
De norte a sur
De este a oeste
Exaltaremos al omnipotente
El es fiel y verdadero
Toda la gloria sea al cordero




[Con todo el gozo chords][Con todo el gozo cifra]
© LaCuerda.net · aviso legal · privacidad · es · en · pt · contacto