Acordes de Guitarra » M »Marcos Witt » A Dios el Padre (Tab)

A Dios el Padre
Marcos Witt

Letras, Acordes y Tabs para Guitarra, Bajo y Ukulele

  •     FA  FAmaj7  FA6   FA   DO   REm   DO REm LAm7 REm7
    A DIOS    EL    PA - DRE  CELESTIAL
    
    DO  FA   DO  FA  SIb  SIbmaj7   DO
    AL  HIJO NUESTRO RE  -  DEN  -  TOR
    
    REm  DO    REm7     DO  REm  SIb   DO   REm
    AL   E  -  TER  -  NAL  CON - SO - LA - DOR
    
    DO FA  SOSIb    FA SIb  FA  DDO  Sib(add9)  Do  RE/FA#
    UNIDOS  TO  -  DOS      A - LA  -  BAD
    
       SOL          RE/FA#   MIm  RE MIm SIm7 MIm7 RE MIm7
    A DIOS EL PADRE CELES - TIAL
    
    RE/FA#  SOL      DO  DOmaj7     RE   MIm  RE
      AL    HIJO NUESTRO REDEN  -  TOR
    
    DOmaj7 RE  MIm    RE  DO  LAm7  RE   MIm7 RE MIm7 SIm7 MIm7
      AL   E - TER - NAL CON - SO - LA - DOR
    
  • G              D/F#    Em
    A Dios el Padre celestial
    
    D/F#  G            C    D  
    al   Hijo nuestro Redentor
    
    G   D         Am    D   Em
    al eternal Conso - la - dor
    
    D/F# G     Am    D   C
    u - nidos todos alabar
  •     F                  C/E Dm
    V1) A Dios el Padre celestial,
       C/E  F          Bb/D Bb C  (F/C  C)
        Al Hijo nuestro redentor,
       Bb  C Dm C   Dm Gm  C  Dm
        Al eternal con-so-la-dor,
      C/E  F  Dm  Gm7 F/C Bb  F/C C Bbadd2
        U-ni-dos   todo---os   a-la-bad.
    
    Inter: || Bbadd2 | Bbadd2 ||
    
    
    (A capella)
    A Dios el Padre celestial, al Hijo nuestro redentor,
    Al eternal consolador, unidos todos alabad.
    
    
    Inter: ||: Bbadd2 | Bbadd2 – C/E | Fadd2 | Fbadd2 :||
    
    
    
  • Canción: A Dios El Padre (La Doxología)
    Instrumento: Bajo Eléctrico
    
    Afinación; B E A D G
    
      (1:57) Intro
    G |---------------------------------------------------------------
    D |---------------------------------------------------------------
    A |-1-1--1---1-1-------1-1--1---1-1-------------------------------
    E |------------------1----------------0---1-1--1---1-1-------1-1--
    B |--------------------------------------------------------1------
    
    G |---------------------------------------------------------------
    D |-----------3---------------------------------------------------
    A |---------3---3---1-1--1---1-1-------1-1--1---1-1---------------
    E |1---1-1---------------------------1----------------0---1-1--1--
    B |---------------------------------------------------------------
    
    G |-----------------------------------|
    D |---------------------------3-------|
    A |-----------------------------------|
    E |-1-1-------1-1--1---1-1-------1----|
    B |---------1-------------------------|
    
      (2:19) Parte A
    
  • QUE DIOS LES BENDIGA MUCHO...
    
    
       F    FMaj7  F6   F     C     Dm C Dm Am7 Dm7
    A DIOS    EL    PA - DRE  CELESTIAL
    
    C   F    C   F   Bb    BbMaj7    C
    AL  HIJO NUESTRO RE  -  DEN  -  TOR
    
    Dm   C     Dm7     C    Dm    Bb   C    Dm
    AL   E  -  TER  -  NAL  CON - SO - LA - DOR
    
    C F Gm7    F Bb  F  C  Bb(add9)  C  D/F#
    UNIDOS  TO  -  DOS      A - LA  -  BAD
    
       G          D/F#   Em  D Em Bm7 Em7 D Em7
    A DIOS EL PADRE CELES – TIAL
    
    D/F#    G     C  CMaj7     D   Em  D
      AL    HIJO NUESTRO REDEN  -  TOR
    
     CMaj7 D   Em    D  C  Am7  D   Em7 D Em7 Bm7 Em7
      AL   E - TER - NAL CON – SO - LA – DOR
    
    D/F#    G       Em7  Am7   G/B C  G D  C(add9)
      U  -  NI  -  DOS   TO  -  DOS       A-  LA  -  BAD
    
    
    LUEGO LA UNES CON EL TEMA NOS HEMOS KONGREGADO
  • +
    ¡Colabora con nosotros!
    Envíanos tu versión de esta canción

Letra de A Dios el Padre
A Dios el Padre celestial
al Hijo nuestro Redentor
al eternal Conso - la - dor
u - nidos todos alabar




[A Dios el Padre chords][A Dios el Padre cifra]
© LaCuerda.net · aviso legal · privacidad · es · en · pt · contacto