Acordes de Guitarra » M »Manuel Mijares » Solamente un hombre (Tab)

Solamente un hombre
Manuel Mijares

Letras, Acordes y Tabs para Guitarra, Bajo y Ukulele

  •                C         C/B     Am     G                C       
    E -----------------------------------------------------------|
    B -----------------------------------------------------------|
    G -----------------------------------------------------------|
    D -----------------------------------------------------------|
    A -------3--5--3-------3--2------------------------3--5--3---|
    E -3--5-------------3---------3--5---1--3----3--5------------|
                                                           
    
        C  C/B     Am           G
    Después  de ti todo cuesta más
        C  C/B     Am         G
    después  de ti duele respirar
    
    E -----------------|
    B -----------------|
    G -----------------|
    D -----------2-----| (BAJEO)
    A --------3-----5--|
    E --3--5-----------|
    
  • +
    ¡Colabora con nosotros!
    Envíanos tu versión de esta canción

Letra de Solamente un hombre
Después de ti todo cuesta más
después de ti duele respirar
no consigo reunir suficientes ánimos
para ser apenas el que fui.
Después de ti necia libertad
después de ti la inseguridad,
como puede un jugador apostar el corazón
y perderlo siempre, dímelo.
Soy un hombre igual que los demás
soy solamente un hombre bien o mal,
que lo voy a hacer si tengo que volver
a comenzar de nuevo sin saber para qué
siempre acabo igual llorando por amor.
(REQUINTO)
Abrir el gas, apagar la luz
después dormir como hiciste tú,
de que sirve estar aquí aceptando el vértigo
de esta inútil desesperación.
Soy un hombre igual que los demás
soy solamente un hombre bien o mal,
que lo voy a hacer si tengo que volver
a comenzar de nuevo sin saber para qué
siempre acabo igual llorando por amor,
soy un hombre igual que los demás
soy solamente un hombre bien o mal,
que lo voy a hacer si tengo que volver
a comenzar de . . . etc.




[Solamente un hombre chords][Solamente un hombre cifra]
© LaCuerda.net · aviso legal · privacidad · es · en · pt · contacto
DINAMICO