Tablatura para Bajo de Manu Chao: Desaparecido
Conexión · Inscripción
Letras y Acordes
Pantalla Completa
Imprimir
Versión Texto
Añadir Favorito
Otras Versiones

Mostrar Diagramas
Desfile Automático
Formato del Texto


Desaparecido(BAJ)

Manu Chao

calidad:
mcha0043
AUTOR: Manu Chao
ALBUM: Clandestino (????)
Enviado por Ivan
Manu Chao - Desaparecido
tabbed by Ivan Rengifo

comentarios, correciones o sugerencias:
comments, corrections or suggestions:
      LaRadiolina@yahoo.com

'DESAPARECIDO'
             (0:10) 
|--------------|-------------------2-----2-------------|
|--------------|------2-----2----2-----2-------2-----2-|
|--------------|----2-----2----0-----0-------2-----2---|
|-2-2----------|--0-----0------------------0-----0-----|

|-----2-2----------------------2-----2---------------|
|---2-----2-0-----2-----2----2-----2-------2-----2---|
|-0-------------2-----2----0-----0-------2-----2---0-|
|-------------0-----0------------------0-----0-------|

(0:30)
|-----------------2-----2-----------------2-2------------------|
|-----2-----2---2-----2-------2-----2---2-----2-0-----2-2------|
|---2-----2---0-----0-------2-----2---0-------------2-----2-0--|
|-0-----0-----------------0-----0-----------------0------------|

|-----2-2-------------------|
|---2-----2-0-----2-2---2---|
|-0-------------2-----2---0-|
|-------------0-------------|

(0:50)
|-------------------2-----2------------------2-----2-------------|
|------2-----2----2-----2-------2-----2----2-----2-------2-----2-|
|----2-----2----0-----0-------2-----2----0-----0-------2-----2---|
|--0-----0------------------0-----0------------------0-----0-----|

|-----2--2-2-0-0------------------------|
|---2------------2-2-2-2-2-2-2-2--------|
|-0-------------------------------7/1---|
|---------------------------------------|

(1:10)
|-------------------2-----2------------------2-2-----------------|
|------2-----2----2-----2-------2-----2----2-----2-0-----2-2-----|
|----2-----2----0-----0-------2-----2----0-------------2-----2-0-|
|--0-----0------------------0-----0------------------0-----------|

                         (1:28)              (1:30)
|-----2-2-----------------|2---2---2---2---2--|-------------|
|---2-----2-0-----2-------|--2---2---2---2----|----2-----2--|
|-0-------------2---2-2-2-|0------------------|--2-----2----|
|-------------0-----------|-------------------|0-----0------|

|-----2-----2------------------2-----2----------------2-2------|
|---2-----2-------2-----2----2-----2------2-2-------2-----2-0--|
|-0-----0-------2-----2----0-----0------2-----2-0-0------------|
|-------------0-----0-----------------0------------------------|

             (1:48)             (1:50)
|-------------|2---2---2---2---2-|-------------|
|-----2-2-----|--2---2---2---2---|----2-----2--|
|---2-----2-0-|------------------|--2-----2----|
|-0-----------|------------------|0-----0------|

|----2-----2------------------2-----2-------------|
|--2-----2-------2-----2----2-----2-------2-----2-|
|0-----0-------2-----2----0-----0-------2-----2---|
|------------0-----0------------------0-----0-----|

(2:03)                                              (2:10)
|-----2--2-2-0-0-----------------|2---2---2---2---2--|-------------|
|---2------------2-2-2-2-2-2-2-2-|--2---2---2---2---2|----2-----2--|
|-0------------------------------|-------------------|--2-----2----|
|--------------------------------|-------------------|0-----0------|

|----2-----2------------------2-----2-------------|
|--2-----2-------2-----2----2-----2-------2-----2-|
|0-----0-------2-----2----0-----0-------2-----2---|
|------------0-----0------------------0-----0-----|

                         (2:28)
|----2-----2-------------|-------------|
|--2-----2-------2-----2-|-------------|
|0-----0-------2-----2---|-x-x---x-x---|
|------------0-----0-----|-----x-----x-|

|------------------2-----2-------------|
|-----2-----2----2-----2-------2-----2-|
|---2-----2----0-----0-------2-----2---|
|-0-----0------------------0-----0-----|

(2:38)              (2:40)
|2---2---2---2---2---|-------------|
|--2---2---2---2---2-|----2-----2--|
|--------------------|--2-----2----|
|--------------------|0-----0------|

                                     (2:50)
|-----2-----2-----------------2-----2-|----------------2-2-----|
|---2-----2-------2-----2---2-----2---|----2-2-------2-----2-0-|
|-0-----0-------2-----2---0-----0-----|--2-----2-0-0-----------|
|-------------0-----0-----------------|0-----------------------|

             (2:58)             (3:00)
|-------------|2---2---2---2---2-|-------------|
|-----2-2-----|--2---2---2---2---|----2-----2--|
|---2-----2-0-|------------------|--2-----2----|
|-0-----------|------------------|0-----0------|

|----2-----2------------------2-----2-------------|
|--2-----2-------2-----2----2-----2-------2-----2-|
|0-----0-------2-----2----0-----0-------2-----2---|
|------------0-----0------------------0-----0-----|

(3:14)                                               (3:20)
|-----2--2-2-0-0------------------|2---2---2---2---2--|-------------|
|---2------------2-2-2-2-2-2-2-2--|--2---2---2---2---2|----2-----2--|
|-0------------------------------0|-------------------|--2-----2----|
|---------------------------------|-------------------|0-----0------|

|----2-----2------------------2-----2-------------|
|--2-----2-------2-----2----2-----2-------2-----2-|
|0-----0-------2-----2----0-----0-------2-----2---|
|------------0-----0------------------0-----0-----|

|----2-----2----------------------------|
|--2-----2-------2-----2----------------|
|0-----0-------2-----2----0-0-0-0-0-0-0-|
|------------0-----0--------------------|

si buscas otra tablatura de bajo escribeme: LaRadiolina@yahoo.com
Este fichero es trabajo propio de su transcriptor y representa su interpretación personal de la canción. El material contenido en esta página es
para exclusivo uso privado, por lo que se prohibe su reproducción o retransmisión, así como su uso para fines comerciales.

© LaCuerda.net · Aviso Legal · Privacidad