Letra y Acordes de Los Manseros Santiagueños: Canto a Monte Quemado
Conexión · Inscripción
Letras y Acordes
Pantalla Completa
Imprimir
Versión Texto
Añadir Favorito
Otras Versiones

Mostrar Diagramas
Desfile Automático
Manipular Acordes
Formato del Texto


Canto a Monte Quemado

Los Manseros Santiagueños

calidad:
msnt0041
AUTOR: Los Manseros Santiagueños  corregir
ALBUM: desconocido
Enviado por Leo
CAPOTRASTE EN EL SEGUNDO TRASTE

ACOMPAÑAMIENTO DEL PUNTEO: Mim-RE-SI7-Mim

PUNTEO

E -9-9-9-9-7-7-9-9---5-7-9-10-9-5-7---7-5-4---
B --------------------------------------------
G --------------------------------------------
D --------------------------------------------
A --------------------------------------------
E --------------------------------------------


E -4-5-7-7-7-7-5-5-7-7---7-7-10-9-9-7-5-------
B --------------------------------------7-----
G ----------------------------------------6---
D ------------------------------------------7-
A --------------------------------------------
E --------------------------------------------


MIm Espesura de los montes,
RE canto del ave salvaje, mensaje de amor y tiempo,
SI7 MIm en el árbol y el plumaje Rumor del silencio herido, por el canto de algún hacha, o el silbo de algún peoncito, que va volviendo a la casa ESTRIBILLO
MIm RE Noche llena de misterio,
DO calladas aves que vuelan,
SI7 remontando a la distancia,
MIm sus sueños hecho tinieblas Mirada del hombre simple, temeroso y tan sufrido, que habla con ruda nostalgia, de las cosas que ha perdido “Monte quemado que esperas, una bendición de Dios, árbol, pájaro y camino, tierra, noche, canto y sol” SEGUNDA PARTE Monte espeso monte virgen, tan lejano y olvidado, andando nomas distancias, pago de Monte Quemado Rastros que ondulan la siesta, dibujándose en la tierra, amor que flota en el aire, mezclado con las tristezas ESTRIBILLO Noche llena de misterio, calladas aves que vuelan, remontando a la distancia, sus sueños hecho tinieblas Mirada del hombre simple, temeroso y tan sufrido, que habla con ruda nostalgia, de las cosas que ha perdido
SI7 MIm MIm SI7 MIm Oohh…
Este fichero es trabajo propio de su transcriptor y representa su interpretación personal de la canción. El material contenido en esta página es
para exclusivo uso privado, por lo que se prohibe su reproducción o retransmisión, así como su uso para fines comerciales.

© LaCuerda.net · Aviso Legal · Privacidad