Tablatura para Guitarra de Los Manseros Santiagueños: Canto a Monte Quemado
Conexión · Inscripción
Letras y Acordes
Pantalla Completa
Imprimir
Versión Texto
Añadir Favorito
Otras Versiones

Mostrar Diagramas
Desfile Automático
Manipular Acordes
Formato del Texto


Canto a Monte Quemado(TAB)

Los Manseros Santiagueños

calidad:
msnt0043
AUTOR: Los Manseros Santiagueños  corregir
ALBUM: desconocido
Enviado por martin
HOLA ESTE ES MI PRIMER APORTE A LACUERDA. SI NO ME EQUIVOCO ESTA BIEN.
SALUDOS

PUNTEO:

1--9-----9-----9-----9-----9-----7----9-------9-------------
2--10----10----10----10----10----9----10------10------------
3-----------------------------------------------------------
4-----------------------------------------------------------
5-----------------------------------------------------------
6-----------------------------------------------------------

1--5-----7----9-----10----9------5-----7----7---------------
2--7-----9----10----12----10-----7-----9----9---------------
3-----------------------------------------------------------
4-----------------------------------------------------------
5-----------------------------------------------------------
6-----------------------------------------------------------

1--7-----5-----4---4-----5----7----7----7----7----7---------
2--9-----7-----5---5-----7----9----9----9----9----9---------
3-----------------------------------------------------------
4-----------------------------------------------------------
5-----------------------------------------------------------
6-----------------------------------------------------------

1--5---7--7----7---7---10----9----9-----7----5--------------
2--7---9--9----9---9---12----10---10----9----7----7---------
3-----------------------------------------------------6-----
4--------------------------------------------------------7--
5-----------------------------------------------------------
6-----------------------------------------------------------

ACOMPAÑAMIENTO:

F#m E Espesura de los montes, canto del ave salvaje
C# F#m mensaje de amor y tiempo, en el árbol y el plumaje.
E Rumor del silencio herido, por el canto de algún hacha
C# F#m o el silbó de algún peonsito, que va volviendo a la casa.
F#m E D Noche llena de misterio, calladas aves que vuelan
C# F#m Remontando a la distancia, sus sueños hechos tinieblas
E D mirada del hombre simple, temeroso y tan sufrido
C# F#m que habla con ruda nostalgia, de las cosas que ha perdido. AHORA VIENE NUEVAMENTE EL PUNTEO, Y SE ACOMPAÑA COMO AL PRINCIPIO:
F#m, E, C#, F#m "Monte Quemado que esperas, una bendición de Dios árbol, pájaro y camino, tierra, noche, canto y sol"
F#m E Monte espeso monte virgen, tan lejano y olvidado
C# F#m andando nomás distancias, pago de Monte Quemado.
E Rastros que ondulan la siesta, dibujándose en la tierra
C# F#m amor que explota en el aire, mezclado con las tristezas. ESTRIBILLO NUEVAMENTE Y TERMINA ESPERO ESTE BIEN Y LES SIRVA. MARTIN, CATAMARCA.
Este fichero es trabajo propio de su transcriptor y representa su interpretación personal de la canción. El material contenido en esta página es
para exclusivo uso privado, por lo que se prohibe su reproducción o retransmisión, así como su uso para fines comerciales.

© LaCuerda.net · Aviso Legal · Privacidad