Acordes de Guitarra » M »La Mancha de Rolando » Secuelas (Tab)

Secuelas
La Mancha de Rolando

Letras, Acordes y Tabs para Guitarra, Bajo y Ukulele

  • e|-------------------------------|
    B|-------------------------------|
    G|-------------------------------|
    D|--------------2----------------| riff
    A|--------2-5-2-------2-5-2------|
    E|--0-0-3---------0-3-------3----|
    
    e|----3--------------------------|
    B|----3--------------------------|
    G|----0--------------------------|
    D|----2--------------------------| E7
    A|----2--------------------------|
    E|----0--------------------------|
    
    
    riff x 4
    E7
    algo cambio
    no vayas a decirme que pare
    despierto en un estado mejor
    
  • +
    ¡Colabora con nosotros!
    Envíanos tu versión de esta canción

Letra de Secuelas
riff x 4
algo cambio
no vayas a decirme que pare
despierto en un estado mejor
como si nada hubiera pasado
pero algo me quedo
si algo me quedo
secuelas de tu amor
que nunca dejaran de observarme
abre por dios
que ahora quiero estar en tu acuario
un rayo solitario cayo
ensima de mi ser subterraneo
que nunca te olvido
no nunca te olvido
secuelas de tu amor
acrobatas de mundos lejanos
_
riff x 6 |
secuelas de tu amor acrobatas de mundos porque
algo cambio...




[Secuelas chords][Secuelas cifra]
© LaCuerda.net · aviso legal · privacidad · es · en · pt · contacto
DINAMICO