Tab p/Bajo de Mago De Oz: La danza del fuego
Pura guitarra y violin

G|-------------|---------------|-------------|---------------|
D|-------------|-------2-------|-------------|-------7-5-----|
A|-----3--3--5-|-----3---5-3-5-|-----3--3--5-|-----3-----7-5-|
E|--1----------|--1------------|--1----------|--1------------|

G|-----------|
D|-----------|
A|-----3--5--|
E|-0/1-------|

Esta parte se hace dos veces
G|----------|------------------|
D|*--------*|------------------|
A|*-5-5----*|-----3-3----------|
E|-----5-5--|-1-1-----1/8-8-10-|

G|-----------------------------|
D|-----------------------------|
A|----3-----3-----3------------|
E|-1-----1-----1-----1/8-8--10-|

Esta parte la haces 4 veces
G|---------------------------------|
D|-3-3-----------------------------|
A|-----3-3-3-3-5-5-----3-3-3-3-5-5-|
E|-----------------5-5-------------|

G|--------------------|---------------------------------|
D|*------------------*|---------------------------------|
A|*-5-5-1-1-33333333-*|---------3-3-3-3------3-3--5-5-5-|
E|--------------------|-1-1-1-1----------1-1------------|

G|--------------------|------------------------------------|
D|*------------------*|------------------------------------|
A|*-5-5-1-1-3-3-3-3--*|---------3-3-3-3------3-3--5555-3-5-|
E|--------------------|-1-1-1-1----------1-1---------------|

Esta parte la haces 4 veces
G|---------------------------------|
D|-3-3-----------------------------|
A|-----3-3-3-3-5-5-----3-3-3-3-5-5-|
E|-----------------5-5-------------|

G|--------------------|---------------------------------------|
D|*------------------*|---------------------------------------|
A|*-5-5-1-1-3-3-3-3--*|---------3-3-3-3------3-3--5555-3-5555-|
E|--------------------|-1-1-1-1----------1-1------------------|

G|--------------------|------------------------------------|
D|*------------------*|------------------------------------|
A|*-5-5-1-1-3-3-3-3--*|---------3-3-3-3------3-3--5555-3-5-|
E|--------------------|-1-1-1-1----------1-1---------------|

Esta parte la haces 7 veces
G|----------------------------|          |-------------------------------|
D|----------------------------| y luego  |-------------------------------|
A|----------------------------|sigue esto|-8-7---------------------------|
E|-5-5-5-3-5-5-5-3-3-3-3-3-5^-|          |-----10-8-8888-8888-8888-8888-8|

Esta parte la haces 4 veces
G|---------------------------------|
D|-3-3-----------------------------|
A|-----3-3-3-3-5-5-----3-3-3-3-5-5-|
E|-----------------5-5-------------|

G|--------------------|------------------------------------|
D|*------------------*|------------------------------------|
A|*-5-5-1-1-3-3-3-3--*|---------3-3-3-3------3-3--5555-3-5-|
E|--------------------|-1-1-1-1----------1-1---------------|
Este fichero es trabajo propio de su transcriptor y representa su interpretación personal de la canción. El material contenido en esta página es
para exclusivo uso privado, por lo que se prohibe su reproducción o retransmisión, así como su uso para fines comerciales.
© LaCuerda.net · aviso legal · privacidad · contacto