Tab p/Bajo de Mago De Oz: La danza del fuego
bajo



                                                                               
G||------------------|------------------|------------------|------------------|
D||------------------|------------------|------------------|------------------|
A||------------------|------------------|------------------|------------------|
E||------------------|------------------|------------------|------------------|


                                                                            
------------------|------------------|------------------|------------------|
------------------|------------------|------------------|------------------|
------------------|------------------|------------------|------------------|
------------------|------------------|------------------|------------------|


                                                                            
------------------|------------------|------------------|------------------|
------------------|------------------|------------------|------------------|
------------------|------------------|------------------|------------------|
------------------|------------------|------------------|------------------|


                                                                               
------------------|------------------|------------------|---------------------|
------------------|------------------|------------------|--0----2-------------|
------------------|------------------|------------------|---------------------|
------------------|------------------|------------------|------------1--------|


                                                             
-------------------|--------------------|-------------------|
-------------------|--------------------|-------------------|
------3------------|--3------------5----|-------------------|
-------------------|--------------------|----------1--------|


                                                                 
-------------------|----------------------|---------------------|
-------------------|----------------------|----0--2-------------|
------3------------|--7----5----3----5----|---------------------|
-------------------|----------------------|------------1--------|


                                                             
-------------------|--------------------|-------------------|
-------------------|--------------------|-------------------|
------3------------|--3------------5----|-------------------|
-------------------|--------------------|----------1--------|


                                                              
-------------------|----------------------|------------------|
-------------------|----------------------|------------------|
------3------------|--7----5----3----5----|------------------|
-------------------|----------------------|------------------|


                                                                              
------------------|------------------||-------------------|------------------|
------------------|------------------||*------------------|------------------|
------------------|------------------||*------------------|------------------|
------------------|------------------||-------------------|------------------|


                                                                            
------------------|------------------|------------------|------------------|
------------------|------------------|------------------|------------------|
------------------|------------------|------------------|------------------|
------------------|------------------|------------------|------------------|


                                                                            
------------------|------------------|------------------|------------------|
------------------|------------------|------------------|------------------|
------------------|------------------|------------------|------------------|
------------------|------------------|------------------|------------------|


                                                                                
------------------|-------------------||-------------------|-------------------|
------------------|------------------*||-------------------|-------------------|
------------------|------------------*||-------------------|----------3--------|
------------------|-------------------||--1----------------|-------------------|


                                                                              
------------------|-------------------|-------------------|------------------|
------------------|-------------------|-------------------|------------------|
------------------|-------------------|----------3--------|------------------|
------------------|--1----------------|-------------------|------------------|


                                                                                
-------------------|-------------------|------------------|--------------------|
-------------------|-------------------|------------------|--------------------|
-------------------|----------3--------|------------------|---------------3----|
--1----------------|-------------------|------------------|--1-----------------|


                                                               
-------------------|-------------------|----------------------|
-------------------|-------------------|----------------------|
----------5--------|------5------------|--8----8--------------|
-------------------|-------------------|------------8----8----|


                                                                     
----------------------|----------------------|----------------------|
----------------------|----------------------|----------------------|
------------5----5----|------------3----3----|--3----3----5----5----|
--8----8--------------|--5----5--------------|----------------------|


                                                                     
----------------------|----------------------|----------------------|
----------------------|----------------------|----------------------|
--8----8--------------|------------5----5----|------------3----3----|
------------8----8----|--8----8--------------|--5----5--------------|


                                                                     
----------------------|----------------------|----------------------|
----------------------|----------------------|----------------------|
--3----3----5----5----|--8----8--------------|------------5----5----|
----------------------|------------8----8----|--8----8--------------|


                                                                     
----------------------|----------------------|----------------------|
----------------------|----------------------|----------------------|
------------3----3----|--3----3----5----5----|--8----8--------------|
--5----5--------------|----------------------|------------8----8----|


                                                                     
----------------------|----------------------|----------------------|
----------------------|----------------------|----------------------|
------------5----5----|------------3----3----|--3----3----5----5----|
--8----8--------------|--5----5--------------|----------------------|


                                                                         
|-----------------------|-----------------------||----------------------|
|*----------------------|----------------------*||----------------------|
|*--5----5--------------|----------------------*||----------------------|
|-------------6----6----|--8----8----8----8-----||--1----1----1----1----|


                                                                     
----------------------|----------------------|----------------------|
----------------------|----------------------|----------------------|
--3----3----3----3----|------------3----3----|--5----5----5----5----|
----------------------|--1----1--------------|----------------------|


                                                                     
----------------------|----------------------|----------------------|
----------------------|----------------------|----------------------|
--5----5--------------|----------------------|--5----5--------------|
------------6----6----|--8----8----8----8----|------------6----6----|


                                                                     
----------------------|----------------------|----------------------|
----------------------|----------------------|----------------------|
----------------------|----------------------|--3----3----3----3----|
--8----8----8----8----|--1----1----1----1----|----------------------|


                                                                         
----------------------|--------------------------|----------------------|
----------------------|--------------------------|----------------------|
------------3----3----|--5--5--5--5--3--5--------|--8----8--------------|
--1----1--------------|--------------------------|------------8----8----|


                                                                     
----------------------|----------------------|----------------------|
----------------------|----------------------|----------------------|
------------5----5----|------------3----3----|--3----3----5----5----|
--8----8--------------|--5----5--------------|----------------------|


                                                                     
----------------------|----------------------|----------------------|
----------------------|----------------------|----------------------|
--8----8--------------|------------5----5----|------------3----3----|
------------8----8----|--8----8--------------|--5----5--------------|


                                                                     
----------------------|----------------------|----------------------|
----------------------|----------------------|----------------------|
--3----3----5----5----|--8----8--------------|------------5----5----|
----------------------|------------8----8----|--8----8--------------|


                                                                     
----------------------|----------------------|----------------------|
----------------------|----------------------|----------------------|
------------3----3----|--3----3----5----5----|--8----8--------------|
--5----5--------------|----------------------|------------8----8----|


                                                                     
----------------------|----------------------|----------------------|
----------------------|----------------------|----------------------|
------------5----5----|------------3----3----|--3----3----5----5----|
--8----8--------------|--5----5--------------|----------------------|


                                                                     
----------------------|----------------------|----------------------|
----------------------|----------------------|----------------------|
--5----5--------------|----------------------|--5----5--------------|
------------6----6----|--8----8----8----8----|------------6----6----|


                                                                     
----------------------|----------------------|----------------------|
----------------------|----------------------|----------------------|
----------------------|----------------------|--3----3----3----3----|
--8----8----8----8----|--1----1----1----1----|----------------------|


                                                                         
----------------------|--------------------------|----------------------|
----------------------|--------------------------|----------------------|
------------3----3----|--5--5--5--5--3--5--------|--5----5--------------|
--1----1--------------|--------------------------|------------6----6----|


                                                                     
----------------------|----------------------|----------------------|
----------------------|----------------------|----------------------|
----------------------|--5----5--------------|----------------------|
--8----8----8----8----|------------6----6----|--8----8----8----8----|


                                                                     
----------------------|----------------------|----------------------|
----------------------|----------------------|----------------------|
----------------------|--3----3----3----3----|------------3----3----|
--1----1----1----1----|----------------------|--1----1--------------|


                                                                           
---------------------------||----------------------|----------------------|
---------------------------||*---------------------|----------------------|
--5--5--5--5--3--5------3--||*--5------3--5--------|--3------3--5------3--|
---------------------------||----------------------|----------------------|


                                                                     
---------------------|-----------------------||---------------------|
---------------------|----------------------*||---------------------|
--5------3--5--------|--3------3--5------3--*||--5------3--5--------|
---------------------|-----------------------||---------------------|


                                                                    
----------------------|---------------------|----------------------|
----------------------|---------------------|----------------------|
--3------3--5------3--|--5------3--5--------|--3------3--5------3--|
----------------------|---------------------|----------------------|


                                                                    
---------------------|----------------------|----------------------|
---------------------|----------------------|----------------------|
--5------3--5--------|--3------3--5------5--|--8----7----5----3----|
---------------------|----------------------|----------------------|


                                                                         
--------------------------------------|---------------------------------|
--------------------------------------|---------------------------------|
--3--3--3--3--3--3--3--3--3--3--3--3--|--3--3--3--3--3--3--3------------|
--------------------------------------|---------------------------------|


                                                                     
----------------------|----------------------|----------------------|
----------------------|----------------------|----------------------|
--8----8--------------|------------5----5----|------------3----3----|
------------8----8----|--8----8--------------|--5----5--------------|


                                                                     
----------------------|----------------------|----------------------|
----------------------|----------------------|----------------------|
--3----3----5----5----|--8----8--------------|------------5----5----|
----------------------|------------8----8----|--8----8--------------|


                                                                     
----------------------|----------------------|----------------------|
----------------------|----------------------|----------------------|
------------3----3----|--3----3----5----5----|--8----8--------------|
--5----5--------------|----------------------|------------8----8----|


                                                                     
----------------------|----------------------|----------------------|
----------------------|----------------------|----------------------|
------------5----5----|------------3----3----|--3----3----5----5----|
--8----8--------------|--5----5--------------|----------------------|


                                                                     
----------------------|----------------------|----------------------|
----------------------|----------------------|----------------------|
--8----8--------------|------------5----5----|------------3----3----|
------------8----8----|--8----8--------------|--5----5--------------|


                                                                     
----------------------|----------------------|----------------------|
----------------------|----------------------|----------------------|
--3----3----5----5----|--5----5--------------|----------------------|
----------------------|------------6----6----|--8----8----8----8----|


                                                                     
----------------------|----------------------|----------------------|
----------------------|----------------------|----------------------|
--5----5--------------|----------------------|----------------------|
------------6----6----|--8----8----8----8----|--1----1----1----1----|


                                                                         
----------------------|----------------------|--------------------------|
----------------------|----------------------|--------------------------|
--3----3----3----3----|------------3----3----|--5--5--5--5--3--5--------|
----------------------|--1----1--------------|--------------------------|


        
------||
------||
------||
------||
Este fichero es trabajo propio de su transcriptor y representa su interpretación personal de la canción. El material contenido en esta página es
para exclusivo uso privado, por lo que se prohibe su reproducción o retransmisión, así como su uso para fines comerciales.
© LaCuerda.net · aviso legal · privacidad · contacto