Tablatura para Guitarra de Luis Alberto Spinetta: Despierta en la brisa
Conexión · Inscripción
Letras y Acordes
Pantalla Completa
Imprimir
Versión Texto
Añadir Favorito
Otras Versiones

Mostrar Diagramas
Desfile Automático
Manipular Acordes
Formato del Texto


Despierta en la brisa(TAB)

Luis Alberto Spinetta

calidad:
spin2171
AUTOR: Luis Alberto Spinetta
ALBUM: Un Mañana (2008)
Enviado por Rodrigo
La afinacion es Drop D , asi que la sexta
en re y como sigue abajo, espero que les sirva,
suena bastante parecida en algunas partes en otras igual ,
cualquier correccion sin miedo que para aprender estamos! , saludos

Intro

e------------------------------------
B------------------------------------
G------------------------------------
D---0-2-2-0-0-0-------0-2-2-0-0-0----
A--0---------2-------0---------2-----
D-0------------3-0--0-------------0s3p0


e-------------------
B---------------0---
G--------------0-2h-  x2
D---0-2-2-0---4-----
A--0----------------
D-0-----------------


e----------------0-----
B---------------3-3-2--
G--------------0-------
D---0-2-2-0---4-------- x2
A--0-------------------
D-0--------------------

------------------0------------------------5--6--7-
-----------------3-------------------------5--6--7-
----------------0---4p2p0h2----------------4--5--6-
----0-2-2-0----4---------------0-2---------5--6--7-
---0--------------------------0--------------------
--0------------------------------------------------


Asus2/G Edim Gm6 Asus2/G Esus4/G Oye amiga quiero festejar el fin del sueño cerca de la luz
F7M/C G/F A/G Y tal vez me abrigue del suelo tibio hasta el amanecer
Asus2/G Edim Gm6 Asus2/G Esus4/G Oye niño te encantan mis pasos, mi atención, mis días
F7M/C G/F Y así es tu cielo abierto azul
A/G Más allá de los tristes túneles
Dm9 Gm/F A/G Y despierta en la brisa un instante de verdad
Dm9 Gm/F A/G Y eleva, y eleva tu consciencia de volar
Dm9 Gm/F A/G Sobre las ruinas, las ruinas de una misión descomunal
Dm9 Gm/F A/G Y despierta en la brisa un instante de verdad
D/C C/A# Y aquellas almas te oirán… Repite Intro Mis sentidos ya no dan abasto en el resplandor Así me abrigue en el suelo tibio, para sentir la música Y te pregunto: “¿como dormirán los enemigos de la humanidad?” Quizás ella arroje su propio fuego, como a hundir el papel. Y despierta en la brisa un instante de verdad Y eleva, y eleva tu consciencia de volar Sobre las ruinas, las ruinas de una misión descomunal Y despierta en la brisa un instante de verdad Y aquellas almas te oirán… Acordes
Asus2/G Edim Gm6 Esus4/G e----7- ---9------10--------5----- B----7- ---8-------8--------5----- G----6- ---9-------9--------4----- D----7- ---8-------8--------5----- A------ -------------------------- D----0- --------------------0-----
F7M/C G/F A/G Gm/F D/C C/A# Dm9 e----0 ----3------5--------3--------10-------8-------0---- B----1 ----3------5--------3--------10-------8-------5---- G----2 ----4------6--------3--------11-------9-------5---- D----3 ----5------7--------5--------12------10-------3---- A----3- ----5------7--------5--------12------10-------5---- D------ ----3------5--------3--------10-------8-------0----
Este fichero es trabajo propio de su transcriptor y representa su interpretación personal de la canción. El material contenido en esta página es
para exclusivo uso privado, por lo que se prohibe su reproducción o retransmisión, así como su uso para fines comerciales.

© LaCuerda.net · Aviso Legal · Privacidad