Acordes de Guitarra » L »Lucho Barrios » Viejo (Tab)
  • Tablatura
    Hola q tal me llamo rudy, bueno esta canción va dedicada para mi padre,
    bueno les aconsejo q primero ya la hayan escuchado para q se les haga fácil
    el aprender de esta canción bueno sin más q decir hay les va:
    
    1 ||---8------8------7-------------------------
    2 ||-----10-----10-----9--10-------10------8---
    3 ||--------9------9---------10------10------9-
    4 ||----------------------------10------10-----
    5 ||-------------------------------------------
    6 ||-------------------------------------------
    
    1 ||----------------------------
    2 ||---9-10-12-12-10-12-13-10---
    3 ||----------------------------
    4 ||----------------------------
    5 ||----------------------------
    6 ||----------------------------
    
    1 ||----------------------------
    2 ||---9-10-12-12-10-12-13-10---
    3 ||----------------------------
    4 ||----------------------------
    5 ||----------------------------
    6 ||----------------------------
    
    1 ||---8------8------7-------------------------
    2 ||-----10-----10-----9--10-------10------8---
    3 
  • +
    ¡Colabora con nosotros!
    Envíanos tu versión de esta canción





© LaCuerda.net · aviso legal · privacidad · contacto