Acordes de Guitarra » L »Lori Meyers » Ham'a'cuckoo (Tab)

Ham'a'cuckoo
Lori Meyers

Letras, Notas, Punteos, Tablaturas y Acordes de Guitarra (Tabs & Chords)

  • Letra y Acordes
        F Csus2 Gm Bbsus2 D  Dm
    e|--1---3---3----1----2---1---|
    B|--1---3---3----1----3---2---|
    G|--2---5---3----3----2---2---|
    D|--3---5---5----3----0---0---|
    A|--3---3---5----1----X---X---|
    E|--1---3---3----1----X---X---|
    
    
    intro:
    
    e|----------------------------------------------|
    B|----------------------------------------------|
    G|----------------------------------------------|
    D|-------------2-0-2-0-2------------------------|
    A|--3-3-3-3-3--3-3-3-3-3--1-0-1-0-1-1-0-1-0-1---|
    E|--1-0-1-0-1-------------3-3-3-3-3-3-3-3-3-3---|   (x2)
    
    
    F Csus2 Gm    (x4)
    
  • +
    ¡Colabora con nosotros!
    Envíanos tu versión de esta canción

Letra de Ham'a'cuckoo
Alguien me preguntó si quería estar mejor
Y cómo decir que no si ahora todo está peor
Si en toda mi vida no estuve mejor
Y si nos quedamos sentados un rato mirándonos
Ahora estamos los dos sin Ruido ni ficción
Sólo una invitación, tomemos el control
Si en toda mi vida no estuve mejor
Y si nos quedamos sentados un rato mirándonos
Y cómo mentir si no estuvo mal...
Y si quieres venirte conmigo a un viaje espacial
(**) antes del estribillo
Y volar......a todo color
y esperar....
en el lado de lo mejor a que nadie te impida ver
lo que hay a tu alrededor
(se repite la estructura de la canción)
Alguien me preguntó si quería estar mejor
Y cómo decir que no si ahora todo está peor
Si en toda mi vida no estuve mejor
Y si nos quedamos sentados un rato mirándonos
Y cómo mentir si no estuvo mal
Y si quieres venirte conmigo a un viaje espacial
Y volar a todo color y esperar...
Na na na na na...



© LaCuerda.net · Aviso Legal · Privacidad