Tablatura para Guitarra de Loquillo: Rock & Roll Star
Conexión · Inscripción
Letras y Acordes
Pantalla Completa
Imprimir
Versión Texto
Añadir Favorito
Otras Versiones

Mostrar Diagramas
Desfile Automático
Manipular Acordes
Formato del Texto


Rock & Roll Star(TAB)

Loquillo

calidad:
loqu0184
AUTOR: J. Mendez
ALBUM: El Ritmo del Garage
Enviado por Armando
Hola, esta es mi primera aportación.
Me he decidido a hacerla ya que no he encontrado
en ningún lugar (ya se aquí o en internet)
la tablatura del solo, y me parece muy extraño,
pues la canción es increíble y el solo aún más.
Esta bastante correcto.
He tenido que partir la frase 6 ya que si no no podía publicar la tablatura.
Durante el solo Sabino (el guitarrista) hace algunos bendings
que escuchando atentamente se darán cuenta
de como ejecutar correctamente el solo.
Si tienen alguna duda o sugerencia,escríbanme a cuentasecundariaop@gmail.com

Un saludo y que lo disfruten!


Frase 1:

E|--9---------------------------------------------------
B|-----12--9--------------------9------9----------------
G|------------11--9------9--11-----11-----11--9------9--
D|-------------------11--------------------------11-----
A|------------------------------------------------------
E|------------------------------------------------------

Frase 2:

E|------------------------------
B|----------------9--12b14--12--
G|---------9--11----------------
D|--9--11-----------------------
A|------------------------------
E|------------------------------

Frase 3:

E|-----12b14--12--9------9--
B|--9----------------12-----
G|--------------------------
D|--------------------------
A|--------------------------
E|--------------------------

Frase 4:

E|--9--12--11--9--9-------------------------------------
B|-------------------12--9------------------------------
G|--------------------------11--9--11b13--b13r11--9--9--
D|------------------------------------------------------
A|------------------------------------------------------
E|------------------------------------------------------

Frase 5:

E|-------------------------------------
B|-------------------------------14----
G|---------9------9--11s13--13--11-----
D|--9--11-----11-----------------------
A|-------------------------------------
E|-------------------------------------

Frase 6 (1era parte):

E|----------12--14b16--14b16--14--12--------------
B|--12--14----------------------------14--12--14--
G|-----------------------------------------------
D|------------------------------------------------
A|-----------------------------------------------
E|-------------------------------------------------

Frase 6 (2nda parte):

E|12--14--14b16--b16r14--12--12--
B|-------------------------------
G|-------------------------------
D|-------------------------------
A|-------------------------------
E|-------------------------------

Frase 7:

E|--------------------------------------------------
B|--14--12------12--14--14b16--14--12---14--14--12--
G|----------13--------------------------------------
D|--------------------------------------------------
A|--------------------------------------------------
E|--------------------------------------------------

Frase 8:

E|--9---------------------------------------------------
B|-----12--9--------------------9------9----------------
G|------------11--9------9--11-----11-----11--9------9--
D|-------------------11--------------------------11-----
A|------------------------------------------------------
E|------------------------------------------------------


Frase 9:

E|-------------------------------------9--12--9--12--
B|------------------------------9--12----------------
G|---------9--11--9--11b13--11-----------------------
D|--9--11--------------------------------------------
A|---------------------------------------------------
E|---------------------------------------------------
Este fichero es trabajo propio de su transcriptor y representa su interpretación personal de la canción. El material contenido en esta página es
para exclusivo uso privado, por lo que se prohibe su reproducción o retransmisión, así como su uso para fines comerciales.


© LaCuerda.net · Aviso Legal · Privacidad