Tablatura para Guitarra de Lisandro Aristimuño: Canción de amor
Conexión · Inscripción
Letras y Acordes
Pantalla Completa
Imprimir
Versión Texto
Añadir Favorito
Otras Versiones

Mostrar Diagramas
Desfile Automático
Manipular Acordes
Formato del Texto


Canción de amor(TAB)

Lisandro Aristimuño

calidad:
lari0151
AUTOR: Lisandro Aristimuño
ALBUM: Azules Turquezas (2004)
Enviado por Joan
Este Riff1 se repite en todas las estrofas.

|-------0/2-------------------------------------------|
|-----3----3----------------3--2--0-------------------|
|---2--------2---0--0--0-0------------2---------------|
|-0---------------------------------------------------|
|-----------------------------------------------------|
|--------------2--2--3--3--3--3--3--3-----------------|

|-------0/2-------------------------------------------|
|----------3----------------3--2--0-------------------|
|---2-----------0--0--0-0------------2----------------|
|-0---0------0----------------------------------------|
|-----------------------------------------------------|
|--------------2--2--3--3--3--3--3--3-----------------|

D G Pido que las noches no se quiebren en tu luz
D G Y que las ventanas sean grandes para el sol
D G Cuando los almendros no se pasen de estacion
D G D Buscare mas flores para darte mi cancion de amor
D G Pido atardeceres en los cielos de beltran
D G Y que tus mañanas siempre sean para hablar
D G Cuando los jardines no se pasen de estacion
D G D Buscare mas flores para darte mi cancion de amor
A Bm Y si vos queres te voy a buscar
G D Para que los dias no se vallan sin pensar
A Bm Y si vos queres te paso a buscar
G A D Y dejamos los caminos libres de humedad Riff2 sobre riff1 (fijense que es lento, busquen el tiempo) ----------------------------------------------- ----------------------------------------------- --4/7--7-9-11-4-2-------4/7--7-9-11--14-14-11-- ----------------------------------------------- ----------------------------------------------- -----------------------------------------------
D G Pido tu mirada mas alegre para mi
D G Y que toda el alma se disuelva en el amor
D G Cuando los almendros no se pasen de estacion
D G D Buscare mas flores para darte mi cancion de amor
A Bm Y si vos queres te voy a buscar
G D Para que los dias se nos vallan sin pensar
A Bm Y si vos queres te paso a buscar
G A D Y dejamos los caminos libres de humedad Final ----------------------------------------------- ---------3-----3--------------------------------- -------2---2-----2-------------------------------- -----0-------0----------------------------------- ---0-------------------------------------------- ----------------------------------------------- esto y despues riff1, despues sobre riff1 hace riff2 ( a G pueden agregarle D en la segunda cuerda (3er traste) ) Bueno esta es mi version de este temazo. espero que les guste. cualquier cosa a mi msn: joanemmanuel@hotmail.com
Este fichero es trabajo propio de su transcriptor y representa su interpretación personal de la canción. El material contenido en esta página es
para exclusivo uso privado, por lo que se prohibe su reproducción o retransmisión, así como su uso para fines comerciales.

© LaCuerda.net · Aviso Legal · Privacidad