Acordes de Guitarra » L »Los Leales » Es que te amo (Tab)

Es que te amo
Los Leales

Letras, Acordes y Tabs para Guitarra, Bajo y Ukulele

  • Em                         Am    D
    Es sentir de nuevo tus caricias
                             G          Em
    Es tener tu cuerpo para amar otra vez
                                  Am
    Es sentir tus labios en los míos
    F                        D
    Me llena de amor de felicidad.
    
    
    
           G
    Has vuelto mi amor
                D            Em
    No sabes cuanto le he pedido a Dios
              B7                 C
    Que regreses a mis brazos mujer
               G              D
    Es que te amo, es que te amo.
    
    
  • E-------------7-8-10/12-10---------------------
    B-/8-8-7-8-10--------------12-10---------------
    G--------------------------------12-11-9-11-12-
    D----------------------------------------------
    A----------------------------------------------
    E----------------------------------------------
    
    E-------10h12-10----------------------------------
    B-10-12-------------8-7-5-------------------------
    G--------------------------9-11-12-11-9-9h11------
    D----------------/9-9-7-5--------------------12-9-
    A-------------------------------------------------
    E-------------------------------------------------
    
    E-7-----------------------------------------------
    B-7-----------------------------------------------
    G-7-----------------------------------------------
    D-9--------------2-3-5/7-5-5p4----------4-5-7/9-7-
    A----2/3-3-2-3-5---------------7-5-4-5-7----------
    E-------------------------------------------------
    
    E------------------------------3h5-3-3p2----------
    B------------5-------------5-6----------5-3-2-
  • +
    ¡Colabora con nosotros!
    Envíanos tu versión de esta canción

Letra de Es que te amo
Es sentir de nuevo tus caricias
Es tener tu cuerpo para amar otra vez
Es sentir tus labios en los míos
Me llena de amor de felicidad.
Has vuelto mi amor
No sabes cuanto le he pedido a Dios
Que regreses a mis brazos mujer
Es que te amo, es que te amo.
Esta canción esta dedicada para mi hija Alison y a toda mi Familia
Espero que esta canción sea del agrado de todos los fanáticos de
Los Leales




[Es que te amo chords][Es que te amo cifra]
© LaCuerda.net · aviso legal · privacidad · es · en · pt · contacto
DINAMICO