Tablatura para Guitarra de Kjarkas: El picaflor
Conexión · Inscripción
Letras y Acordes
Pantalla Completa
Imprimir
Versión Texto
Añadir Favorito
Otras Versiones

Mostrar Diagramas
Desfile Automático
Manipular Acordes
Formato del Texto


El picaflor(TAB)

Kjarkas

calidad:
kjar0043
AUTOR: Edwin castellanos
ALBUM: desconocido
Enviado por David
Hola Amigos! Esta es la tablatura para Charango de
esta canción (versión Standar)
Espero que les guste y que les sea de mucha utilidad.
No te olvides de darme tu voto!


 LOS KJARKAS
 EL PICAFLOR
 ============



 E|---0---0-------------|---0-1-5-1-----1----1--||
 A|---------------------|-----------------------||
 E|-0-------------------|-------------------0-0-|| (2x)
 C|-----2---2---0-0h2-2-|-2-----------2---------||
 G|---------------------|-----------------------||


 E|-----0-------5---3-3-|---1---1----------------|
 A|---3-------3---------|-------------------2-2--|
 E|--0------------3-----|-0---0---0--------------|
 C|----2-2--------------|------------2-0-----0---|
 G|-0-------------------|------------------------|


 E|-----0-------5---3-3-|-0-1-0------------------|
 A|---3-------3---------|-------------2------2h0-|
 E|--0------------3-----|------------------------| (Am)
 C|----2-2--------------|-------2-0-----0---0----|
 G|-0-------------------|------------------------|
Este fichero es trabajo propio de su transcriptor y representa su interpretación personal de la canción. El material contenido en esta página es
para exclusivo uso privado, por lo que se prohibe su reproducción o retransmisión, así como su uso para fines comerciales.


© LaCuerda.net · Aviso Legal · Privacidad