Acordes de Guitarra » K »Kevin Johansen » La Hamaca (Tab)

La Hamaca
Kevin Johansen

Letras, Acordes y Tabs para Guitarra, Bajo y Ukulele

  •    E                   F#m
    e|--3/4--0---3/4--0--|-3/5--2---3/5--2-|
    b|-------------------|-----------------|
    g|--3/4--1---3/4--1--|-4/6--2---4/6--2-|
    D|-------------------|-----------------|
    A|-------------------|-----------------|
    E|-------------------|-----------------|
       E                   F#m
    e|--3/4--0---3/4--0--|-3/5--2---3/5--7-|
    b|-------------------|-----------------|
    g|--3/4--1---3/4--1--|-4/6--2---4/6--8-|
    D|-------------------|-----------------|
    A|-------------------|-----------------|
    E|-------------------|-----------------|
    
    
    E
    Voy y vengo sin preocupación
    F#m
    Sólo tengo tiempo y emoción
    
  • +
    ¡Colabora con nosotros!
    Envíanos tu versión de esta canción

Letra de La Hamaca
Voy y vengo sin preocupación
Sólo tengo tiempo y emoción
Y voy en una sola dirección
La del viento en mi corazón
Aquí en la hamaca, hama, ca, hama, ca
Los recuerdos vienen y se van
Sólo quedan esos que me dan
Sentimientos parecidos al Movimiento, que sólo consigo
Aquí en la hamaca, hama, ca hama, ca
No es como el tobogán
Esa vil metáfora de la vida y la muerte
Ni como el subibaja, que siempre te deja a tu suerte
Y siempre baja.
No, no.
Notas del transcriptor:
Queda hermoso combinar posiciones de los acordes.
Por ejemplo, el el verso y el estribillo a veces arpegio esto:
Y el final de puente:
No, no.
Puedo hacer este cambio en el piano, en la guitarra solo toco la fundamental.
Queda así:
Y solo queda volver a felicitarlos por la buena música que escuchan.
Jesús.
@TuInmortal




[La Hamaca chords][La Hamaca cifra]
© LaCuerda.net · aviso legal · privacidad · es · en · pt · contacto
DINAMICO