Letra y Acordes de Julio Jaramillo: 5 Centavitos
Conexión · Inscripción
Letras y Acordes
Pantalla Completa
Imprimir
Versión Texto
Añadir Favorito
Otras Versiones

Mostrar Diagramas
Desfile Automático
Manipular Acordes
Formato del Texto


5 Centavitos

Julio Jaramillo

calidad:
jjar0534
AUTOR: Hector Ulloa
ALBUM: Tristesas (1977)
Enviado por alexander
e--------------12----------------------12---------------------12--12---
b--10--12--13------13--12--10--12--13-----13--12--10--12--13--13--13---
g----------------------------------------------------------------------

e--------------12----------------------12----------------------12--12--
b------10--12------12--10------10--12------12--10------10--12--12--12--
g--12----------------------12----------------------12------------------

e------11--12--14--12--11------11--12--14--12--11------11--12--14--14--
b--12----------------------12----------------------12------------------
g----------------------------------------------------------------------

e------------------------------------------------------
b--12--13--12--10--12--10------10----------------------
g--------------------------12------12--11--12--11--10--



MIm SI7 MIm quiero comprarle a la vida
MI7 LAm cinco centavitos de felicidad
SI7 quiero tener yo mi dicha
MIm pagando com sangre y con lagrimas
SI7 MIm quiero tenerte en mis brazos
MI7 LAm tan solo un minuto poderte besar
SI7 aunque despues no te tenga
MIm LAm y viva un infierno y tenga que llorar
MIm aunque me mate la angustia
SI7 MIm MI7 LAm de saber que fuiste y ya no seras
MIm quiero comprarle a la vida
SI7 MIm cinco centavitos de felicidad se repite el intro y la letra
Este fichero es trabajo propio de su transcriptor y representa su interpretación personal de la canción. El material contenido en esta página es
para exclusivo uso privado, por lo que se prohibe su reproducción o retransmisión, así como su uso para fines comerciales.

© LaCuerda.net · Aviso Legal · Privacidad