Acordes de Guitarra » J »Juan Carlos Alvarado » Tomamos Autoridad (Tab)

Tomamos Autoridad
Juan Carlos Alvarado

Letras, Acordes y Tabs para Guitarra, Bajo y Ukulele

  • ESTA CANCIOn ES PARTE DE UN POPURRI DE JUAN CARLOS ALVARADO ASI KE
    ANTES DE PASAR A "Am" DEBEN TOCAR STOS ACORDES: Dm-Em
    __________________________________________________________________
    ::::::::::::::::::::::::::::::::::::::::::::::::::::::::::::::::::
       Am                     F   G    Am
    Tomamos autoridad contra toda potestad
       Am                     F   G    Am
    tomamos autoridad en el nombre de Jesús
       Am                     F   G    Am
    Tomamos autoridad sobre huestes de maldad
      Am                     F   G    Am
    tomamos autoridad en el nombre de Jesús
    
     Dm               Em
    Norte y Sur a predicar
    Dm               Em
    Este y Oeste a predicar
     F                       G          E
    por que el Señor nos ha dado la ciudad
    __________________________________
    KE DIOS LOS BENDIGA!!!!!!!!!!!!
  • Intro  Esus4 x3  Am
    
      //Fmaj7 G Am7//  F G
    
      Am7                G    Fmaj7
    Tomamos autoridad contra toda potestad
       Am7               G   Fmaj7
    tomamos autoridad en el nombre de Jesús
       Am7               G     Fmaj7
    Tomamos autoridad sobre huestes de maldad
      Am7                G  Fmaj7
    tomamos autoridad en el nombre de Jesús
    
    CORO
    
    Fmaj7  Em7
    
     Dm7               Em7
    Norte y Sur a predicar
    Dm7               Em7
    
  • e|-------|-----------------------------------------|----10-|----------|
    B|-------|-10-12-13-12-10--8-10-10-8-10--13-12-12--|-13----|-13-12-10-|
    G|-9-9-9-|-----------------------------------------|-------|----------|
    D|-9-9-9-|-----------------------------------------|-------|----------|
    A|-7-7-7-|-----------------------------------------|-------|----------|
    E|-------|-----------------------------------------|-------|----------|
    
    2da parte                      y se entra al verso con:  F  G
    e|----------------------------------------|------------|------|
    B|-10-12-13-12-10--8-10-10-8-10--13-12-12-|-12-10-8-10-|------|
    G|----------------------------------------|------------|------|
    D|----------------------------------------|------------|-3--5-|
    A|----------------------------------------|------------|-3--5-|
    E|----------------------------------------|------------|-1--3-|
    
    Arreglos del teclado en las estrofas:
    
    "tomamos autoridad contra toda potestad"
    e|------------------------|
    B|-10-8-10-10-10--10-8-10-|
    
  • +
    ¡Colabora con nosotros!
    Envíanos tu versión de esta canción

Letra de Tomamos Autoridad
Tomamos autoridad contra toda potestad
tomamos autoridad en el nombre de Jesús
Tomamos autoridad sobre huestes de maldad
tomamos autoridad en el nombre de Jesús
Norte y Sur a predicar
Este y Oeste a predicar
por que el Señor nos ha dado la ciudad
__________________________________
KE DIOS LOS BENDIGA!!!!!!!!!!!!




[Tomamos Autoridad chords][Tomamos Autoridad cifra]
© LaCuerda.net · aviso legal · privacidad · es · en · pt · contacto