Acordes de Guitarra » J »Jorge Rojas » Celoso no soy (Tab)

Celoso no soy
Jorge Rojas

Letras, Notas, Punteos, Tablaturas y Acordes de Guitarra (Tabs & Chords)

  • Letra y Acordes
    (Em)                 C
    Así con dueño te quiero
    
    D7                 G
    porque celoso no soy
    
                        A7
    y compartirte prefiero
    
    G            B7           Em
    antes que andar sin tu amor
    
    G                   A7
    yo compartirte prefiero
    
    G          B7       Em
    porque mesquino no soy.
    
    
    
    
  • Letra y Acordes
    e|-0-3-3-3-0-0-0-3-3-3--0-3-3-3-0-----0-------|
    B|--------------------------------3-3---3-0---|
    G|--------------------------------------------|
    D|--------------------------------------------|
    
    e|--------------------------------------------|
    B|-3-0-------------0-3------0--0--------------|
    G|-----2-0-0-0-0-2--------2--2--2-0-----------|
    D|----------------------------------2-2-2-2---|X2
    (Solo la parte de abajo se repite)
    
    
    
    (Silencio)       C
    Asi con dueño te quiero
    D                G
    porque celoso no soy,
    A                 G    B7                      Em
    y compartirte prefiero antes que andar sin tu amor
    A                  G    B7                 Em
    
  • +
    ¡Colabora con nosotros!
    Envíanos tu versión de esta canción

Letra de Celoso no soy
Así con dueño te quiero
porque celoso no soy
y compartirte prefiero
antes que andar sin tu amor
yo compartirte prefiero
porque mesquino no soy.
Y si a escondidas nos vemos
yo entendere la razón
porque de amores como estos
discreto es mi corazón
y para serte sincero
que nadie sepa es mejor.
Porque mujer no pretendo
ser único en tu amor
quiero tus besos, tu corazón
aunque otro dueño tenga tu amor,
dame tus besos, tu corazón
aunque otro dueño tenga tu amoooooor...
Y dice!!!!!!!!!



© LaCuerda.net · Aviso Legal · Privacidad